  0
SECTION
  2
HEADER
  9
$ACADVER
  1
AC1015
  9
$ACADMAINTVER
 70
     6
  9
$DWGCODEPAGE
  3
ANSI_1252
  9
$INSBASE
 10
0.0
 20
0.0
 30
0.0
  9
$EXTMIN
 10
-6.489168978720535
 20
0.0
 30
0.0
  9
$EXTMAX
 10
297.0000610351563
 20
210.0
 30
0.0
  9
$LIMMIN
 10
0.0
 20
0.0
  9
$LIMMAX
 10
297.0
 20
210.0
  9
$ORTHOMODE
 70
     0
  9
$REGENMODE
 70
     1
  9
$FILLMODE
 70
     1
  9
$QTEXTMODE
 70
     0
  9
$MIRRTEXT
 70
     1
  9
$LTSCALE
 40
15.0
  9
$ATTMODE
 70
     1
  9
$TEXTSIZE
 40
0.2
  9
$TRACEWID
 40
0.05
  9
$TEXTSTYLE
  7
STANDARD
  9
$CLAYER
  8
0
  9
$CELTYPE
  6
BYLAYER
  9
$CECOLOR
 62
   256
  9
$CELTSCALE
 40
1.0
  9
$DISPSILH
 70
     0
  9
$DIMSCALE
 40
1.0
  9
$DIMASZ
 40
0.18
  9
$DIMEXO
 40
0.0625
  9
$DIMDLI
 40
0.38
  9
$DIMRND
 40
0.0
  9
$DIMDLE
 40
0.0
  9
$DIMEXE
 40
0.18
  9
$DIMTP
 40
0.0
  9
$DIMTM
 40
0.0
  9
$DIMTXT
 40
0.18
  9
$DIMCEN
 40
0.09
  9
$DIMTSZ
 40
0.0
  9
$DIMTOL
 70
     0
  9
$DIMLIM
 70
     0
  9
$DIMTIH
 70
     1
  9
$DIMTOH
 70
     1
  9
$DIMSE1
 70
     0
  9
$DIMSE2
 70
     0
  9
$DIMTAD
 70
     0
  9
$DIMZIN
 70
     0
  9
$DIMBLK
  1

  9
$DIMASO
 70
     1
  9
$DIMSHO
 70
     1
  9
$DIMPOST
  1

  9
$DIMAPOST
  1

  9
$DIMALT
 70
     0
  9
$DIMALTD
 70
     2
  9
$DIMALTF
 40
25.4
  9
$DIMLFAC
 40
1.0
  9
$DIMTOFL
 70
     0
  9
$DIMTVP
 40
0.0
  9
$DIMTIX
 70
     0
  9
$DIMSOXD
 70
     0
  9
$DIMSAH
 70
     0
  9
$DIMBLK1
  1

  9
$DIMBLK2
  1

  9
$DIMSTYLE
  2
STANDARD
  9
$DIMCLRD
 70
     0
  9
$DIMCLRE
 70
     0
  9
$DIMCLRT
 70
     0
  9
$DIMTFAC
 40
1.0
  9
$DIMGAP
 40
0.09
  9
$DIMJUST
 70
     0
  9
$DIMSD1
 70
     0
  9
$DIMSD2
 70
     0
  9
$DIMTOLJ
 70
     1
  9
$DIMTZIN
 70
     0
  9
$DIMALTZ
 70
     0
  9
$DIMALTTZ
 70
     0
  9
$DIMUPT
 70
     0
  9
$DIMDEC
 70
     4
  9
$DIMTDEC
 70
     4
  9
$DIMALTU
 70
     2
  9
$DIMALTTD
 70
     2
  9
$DIMTXSTY
  7
STANDARD
  9
$DIMAUNIT
 70
     0
  9
$DIMADEC
 70
     0
  9
$DIMALTRND
 40
0.0
  9
$DIMAZIN
 70
     0
  9
$DIMDSEP
 70
    46
  9
$DIMATFIT
 70
     3
  9
$DIMFRAC
 70
     0
  9
$DIMLDRBLK
  1

  9
$DIMLUNIT
 70
     2
  9
$DIMLWD
 70
    -2
  9
$DIMLWE
 70
    -2
  9
$DIMTMOVE
 70
     0
  9
$LUNITS
 70
     2
  9
$LUPREC
 70
     4
  9
$SKETCHINC
 40
0.1
  9
$FILLETRAD
 40
0.5
  9
$AUNITS
 70
     0
  9
$AUPREC
 70
     0
  9
$MENU
  1
.
  9
$ELEVATION
 40
0.0
  9
$PELEVATION
 40
0.0
  9
$THICKNESS
 40
0.0
  9
$LIMCHECK
 70
     0
  9
$CHAMFERA
 40
0.5
  9
$CHAMFERB
 40
0.5
  9
$CHAMFERC
 40
1.0
  9
$CHAMFERD
 40
0.0
  9
$SKPOLY
 70
     0
  9
$TDCREATE
 40
2454848.442804664
  9
$TDUCREATE
 40
2454848.359471331
  9
$TDUPDATE
 40
2455015.800186874
  9
$TDUUPDATE
 40
2455015.716853541
  9
$TDINDWG
 40
0.0242018287
  9
$TDUSRTIMER
 40
0.0242005556
  9
$USRTIMER
 70
     1
  9
$ANGBASE
 50
0.0
  9
$ANGDIR
 70
     0
  9
$PDMODE
 70
     0
  9
$PDSIZE
 40
0.0
  9
$PLINEWID
 40
0.0
  9
$SPLFRAME
 70
     0
  9
$SPLINETYPE
 70
     6
  9
$SPLINESEGS
 70
     8
  9
$HANDSEED
  5
544
  9
$SURFTAB1
 70
     6
  9
$SURFTAB2
 70
     6
  9
$SURFTYPE
 70
     6
  9
$SURFU
 70
     6
  9
$SURFV
 70
     6
  9
$UCSBASE
  2

  9
$UCSNAME
  2

  9
$UCSORG
 10
0.0
 20
0.0
 30
0.0
  9
$UCSXDIR
 10
1.0
 20
0.0
 30
0.0
  9
$UCSYDIR
 10
0.0
 20
1.0
 30
0.0
  9
$UCSORTHOREF
  2

  9
$UCSORTHOVIEW
 70
     0
  9
$UCSORGTOP
 10
0.0
 20
0.0
 30
0.0
  9
$UCSORGBOTTOM
 10
0.0
 20
0.0
 30
0.0
  9
$UCSORGLEFT
 10
0.0
 20
0.0
 30
0.0
  9
$UCSORGRIGHT
 10
0.0
 20
0.0
 30
0.0
  9
$UCSORGFRONT
 10
0.0
 20
0.0
 30
0.0
  9
$UCSORGBACK
 10
0.0
 20
0.0
 30
0.0
  9
$PUCSBASE
  2

  9
$PUCSNAME
  2

  9
$PUCSORG
 10
0.0
 20
0.0
 30
0.0
  9
$PUCSXDIR
 10
1.0
 20
0.0
 30
0.0
  9
$PUCSYDIR
 10
0.0
 20
1.0
 30
0.0
  9
$PUCSORTHOREF
  2

  9
$PUCSORTHOVIEW
 70
     0
  9
$PUCSORGTOP
 10
0.0
 20
0.0
 30
0.0
  9
$PUCSORGBOTTOM
 10
0.0
 20
0.0
 30
0.0
  9
$PUCSORGLEFT
 10
0.0
 20
0.0
 30
0.0
  9
$PUCSORGRIGHT
 10
0.0
 20
0.0
 30
0.0
  9
$PUCSORGFRONT
 10
0.0
 20
0.0
 30
0.0
  9
$PUCSORGBACK
 10
0.0
 20
0.0
 30
0.0
  9
$USERI1
 70
     0
  9
$USERI2
 70
     0
  9
$USERI3
 70
     0
  9
$USERI4
 70
     0
  9
$USERI5
 70
     0
  9
$USERR1
 40
0.0
  9
$USERR2
 40
0.0
  9
$USERR3
 40
0.0
  9
$USERR4
 40
0.0
  9
$USERR5
 40
0.0
  9
$WORLDVIEW
 70
     1
  9
$SHADEDGE
 70
     3
  9
$SHADEDIF
 70
    70
  9
$TILEMODE
 70
     1
  9
$MAXACTVP
 70
    64
  9
$PINSBASE
 10
0.0
 20
0.0
 30
0.0
  9
$PLIMCHECK
 70
     0
  9
$PEXTMIN
 10
0.0
 20
0.0
 30
0.0
  9
$PEXTMAX
 10
297.0
 20
210.0
 30
0.0
  9
$PLIMMIN
 10
0.0
 20
0.0
  9
$PLIMMAX
 10
297.0
 20
210.0
  9
$UNITMODE
 70
     0
  9
$VISRETAIN
 70
     1
  9
$PLINEGEN
 70
     0
  9
$PSLTSCALE
 70
     1
  9
$TREEDEPTH
 70
  3020
  9
$CMLSTYLE
  2
STANDARD
  9
$CMLJUST
 70
     0
  9
$CMLSCALE
 40
1.0
  9
$PROXYGRAPHICS
 70
     1
  9
$MEASUREMENT
 70
     0
  9
$CELWEIGHT
370
    -1
  9
$ENDCAPS
280
     0
  9
$JOINSTYLE
280
     0
  9
$LWDISPLAY
290
     0
  9
$INSUNITS
 70
     0
  9
$HYPERLINKBASE
  1

  9
$STYLESHEET
  1

  9
$XEDIT
290
     1
  9
$CEPSNTYPE
380
     0
  9
$PSTYLEMODE
290
     1
  9
$FINGERPRINTGUID
  2
{BF291E0C-2214-48AD-8BE7-31E65F078F20}
  9
$VERSIONGUID
  2
{D44FDE6C-ADBB-4F92-816F-E605F6EF8E76}
  9
$EXTNAMES
290
     1
  9
$PSVPSCALE
 40
0.0
  9
$OLESTARTUP
290
     0
  0
ENDSEC
  0
SECTION
  2
CLASSES
  0
CLASS
  1
ACDBDICTIONARYWDFLT
  2
AcDbDictionaryWithDefault
  3
AutoCAD 2000
 90
        0
280
     0
281
     0
  0
CLASS
  1
IMAGEDEF
  2
AcDbRasterImageDef
  3
ISM
 90
        0
280
     0
281
     0
  0
CLASS
  1
RASTERVARIABLES
  2
AcDbRasterVariables
  3
ISM
 90
        0
280
     0
281
     0
  0
CLASS
  1
IMAGE
  2
AcDbRasterImage
  3
ISM
 90
      127
280
     0
281
     1
  0
CLASS
  1
IMAGEDEF_REACTOR
  2
AcDbRasterImageDefReactor
  3
ISM
 90
        1
280
     0
281
     0
  0
CLASS
  1
XRECORD
  2
AcDbXrecord
  3
AutoCAD 2000
 90
    32768
280
     0
281
     0
  0
CLASS
  1
LWPOLYLINE
  2
AcDbPolyline
  3
AutoCAD 2000
 90
    32768
280
     0
281
     1
  0
CLASS
  1
HATCH
  2
AcDbHatch
  3
AutoCAD 2000
 90
    32768
280
     0
281
     1
  0
CLASS
  1
ACDBPLACEHOLDER
  2
AcDbPlaceHolder
  3
AutoCAD 2000
 90
        0
280
     0
281
     0
  0
CLASS
  1
LAYOUT
  2
AcDbLayout
  3
AutoCAD 2000
 90
        0
280
     0
281
     0
  0
CLASS
  1
DICTIONARYVAR
  2
AcDbDictionaryVar
  3
AutoCAD 2000
 90
        0
280
     0
281
     0
  0
ENDSEC
  0
SECTION
  2
TABLES
  0
TABLE
  2
VPORT
  5
8
330
0
100
AcDbSymbolTable
 70
     8
  0
VPORT
  5
523
330
8
100
AcDbSymbolTableRecord
100
AcDbViewportTableRecord
  2
*Active
 70
     0
 10
0.0
 20
0.0
 11
1.0
 21
1.0
 12
69.76429136262414
 22
61.93056018282206
 13
0.0
 23
0.0
 14
0.5
 24
0.5
 15
0.5
 25
0.5
 16
0.0
 26
0.0
 36
1.0
 17
0.0
 27
0.0
 37
0.0
 40
86.00514304006622
 41
1.595959595959596
 42
50.0
 43
0.0
 44
0.0
 50
0.0
 51
0.0
 71
     0
 72
   100
 73
     1
 74
     3
 75
     1
 76
     0
 77
     0
 78
     0
281
     0
 65
     1
110
0.0
120
0.0
130
0.0
111
1.0
121
0.0
131
0.0
112
0.0
122
1.0
132
0.0
 79
     0
146
0.0
  0
ENDTAB
  0
TABLE
  2
LTYPE
  5
5
330
0
100
AcDbSymbolTable
 70
    41
  0
LTYPE
  5
14
330
5
100
AcDbSymbolTableRecord
100
AcDbLinetypeTableRecord
  2
BYBLOCK
 70
     0
  3

 72
    65
 73
     0
 40
0.0
  0
LTYPE
  5
15
330
5
100
AcDbSymbolTableRecord
100
AcDbLinetypeTableRecord
  2
BYLAYER
 70
     0
  3

 72
    65
 73
     0
 40
0.0
  0
LTYPE
  5
16
330
5
100
AcDbSymbolTableRecord
100
AcDbLinetypeTableRecord
  2
CONTINUOUS
 70
     0
  3
Solid line
 72
    65
 73
     0
 40
0.0
  0
LTYPE
  5
2A
330
5
100
AcDbSymbolTableRecord
100
AcDbLinetypeTableRecord
  2
FIN
 70
     0
  3
________________________________
 72
    65
 73
     0
 40
0.0
  0
LTYPE
  5
2B
330
5
100
AcDbSymbolTableRecord
100
AcDbLinetypeTableRecord
  2
MOYEN
 70
     0
  3
________________________________
 72
    65
 73
     0
 40
0.0
  0
LTYPE
  5
2C
330
5
100
AcDbSymbolTableRecord
100
AcDbLinetypeTableRecord
  2
EPAIS
 70
     0
  3
________________________________
 72
    65
 73
     0
 40
0.0
  0
LTYPE
  5
2D
330
5
100
AcDbSymbolTableRecord
100
AcDbLinetypeTableRecord
  2
TIRET
 70
     0
  3
____    ____    ____    ____    ^D
 72
    65
 73
     4
 40
1.0
 49
0.25
 74
     0
 49
-0.25
 74
     0
 49
0.25
 74
     0
 49
-0.25
 74
     0
  0
LTYPE
  5
2E
330
5
100
AcDbSymbolTableRecord
100
AcDbLinetypeTableRecord
  2
POINT
 70
     0
  3
_ _ _ _ _ _ _ _ _ _ _ _ _ _ _ _ ^H
 72
    65
 73
     8
 40
0.5
 49
0.0625
 74
     0
 49
-0.0625
 74
     0
 49
0.0625
 74
     0
 49
-0.0625
 74
     0
 49
0.0625
 74
     0
 49
-0.0625
 74
     0
 49
0.0625
 74
     0
 49
-0.0625
 74
     0
  0
LTYPE
  5
2F
330
5
100
AcDbSymbolTableRecord
100
AcDbLinetypeTableRecord
  2
AXES
 70
     0
  3
_______   _     _______   _     ^D
 72
    65
 73
     4
 40
1.0
 49
0.4375
 74
     0
 49
-0.1875
 74
     0
 49
0.0625
 74
     0
 49
-0.3125
 74
     0
  0
LTYPE
  5
30
330
5
100
AcDbSymbolTableRecord
100
AcDbLinetypeTableRecord
  2
AXESDBLE
 70
     0
  3
_____   _   _   _____   _   _   ^F
 72
    65
 73
     6
 40
1.0
 49
0.3125
 74
     0
 49
-0.1875
 74
     0
 49
0.0625
 74
     0
 49
-0.1875
 74
     0
 49
0.0625
 74
     0
 49
-0.1875
 74
     0
  0
LTYPE
  5
31
330
5
100
AcDbSymbolTableRecord
100
AcDbLinetypeTableRecord
  2
BLEU
 70
     0
  3
________________________________
 72
    65
 73
     0
 40
0.0
  0
LTYPE
  5
32
330
5
100
AcDbSymbolTableRecord
100
AcDbLinetypeTableRecord
  2
VERT
 70
     0
  3
________________________________
 72
    65
 73
     0
 40
0.0
  0
LTYPE
  5
33
330
5
100
AcDbSymbolTableRecord
100
AcDbLinetypeTableRecord
  2
CYAN
 70
     0
  3
________________________________
 72
    65
 73
     0
 40
0.0
  0
LTYPE
  5
34
330
5
100
AcDbSymbolTableRecord
100
AcDbLinetypeTableRecord
  2
ROUGE
 70
     0
  3
________________________________
 72
    65
 73
     0
 40
0.0
  0
LTYPE
  5
35
330
5
100
AcDbSymbolTableRecord
100
AcDbLinetypeTableRecord
  2
VIOLET
 70
     0
  3
________________________________
 72
    65
 73
     0
 40
0.0
  0
LTYPE
  5
36
330
5
100
AcDbSymbolTableRecord
100
AcDbLinetypeTableRecord
  2
JAUNE
 70
     0
  3
________________________________
 72
    65
 73
     0
 40
0.0
  0
LTYPE
  5
37
330
5
100
AcDbSymbolTableRecord
100
AcDbLinetypeTableRecord
  2
NOIR
 70
     0
  3
________________________________
 72
    65
 73
     0
 40
0.0
  0
LTYPE
  5
38
330
5
100
AcDbSymbolTableRecord
100
AcDbLinetypeTableRecord
  2
BLANC
 70
     0
  3
________________________________
 72
    65
 73
     0
 40
0.0
  0
LTYPE
  5
39
330
5
100
AcDbSymbolTableRecord
100
AcDbLinetypeTableRecord
  2
ORANGE
 70
     0
  3
________________________________
 72
    65
 73
     0
 40
0.0
  0
LTYPE
  5
3A
330
5
100
AcDbSymbolTableRecord
100
AcDbLinetypeTableRecord
  2
BRUN
 70
     0
  3
________________________________
 72
    65
 73
     0
 40
0.0
  0
LTYPE
  5
3B
330
5
100
AcDbSymbolTableRecord
100
AcDbLinetypeTableRecord
  2
GRIS
 70
     0
  3
________________________________
 72
    65
 73
     0
 40
0.0
  0
LTYPE
  5
3C
330
5
100
AcDbSymbolTableRecord
100
AcDbLinetypeTableRecord
  2
SYMBOL_C
 70
     0
  3
________________________________
 72
    65
 73
     0
 40
0.0
  0
LTYPE
  5
3D
330
5
100
AcDbSymbolTableRecord
100
AcDbLinetypeTableRecord
  2
SYMBOL_P
 70
     0
  3
________________________________
 72
    65
 73
     0
 40
0.0
  0
LTYPE
  5
3E
330
5
100
AcDbSymbolTableRecord
100
AcDbLinetypeTableRecord
  2
LINE
 70
     0
  3
________________________________
 72
    65
 73
     0
 40
0.0
  0
LTYPE
  5
3F
330
5
100
AcDbSymbolTableRecord
100
AcDbLinetypeTableRecord
  2
LINE_1
 70
     0
  3
________________________________
 72
    65
 73
     0
 40
0.0
  0
LTYPE
  5
40
330
5
100
AcDbSymbolTableRecord
100
AcDbLinetypeTableRecord
  2
LINE_2
 70
     0
  3
________________________________
 72
    65
 73
     0
 40
0.0
  0
LTYPE
  5
41
330
5
100
AcDbSymbolTableRecord
100
AcDbLinetypeTableRecord
  2
LINE_3
 70
     0
  3
________________________________
 72
    65
 73
     0
 40
0.0
  0
LTYPE
  5
42
330
5
100
AcDbSymbolTableRecord
100
AcDbLinetypeTableRecord
  2
LINE_4
 70
     0
  3
________________________________
 72
    65
 73
     0
 40
0.0
  0
LTYPE
  5
43
330
5
100
AcDbSymbolTableRecord
100
AcDbLinetypeTableRecord
  2
LINE_5
 70
     0
  3
________________________________
 72
    65
 73
     0
 40
0.0
  0
LTYPE
  5
44
330
5
100
AcDbSymbolTableRecord
100
AcDbLinetypeTableRecord
  2
LINE_6
 70
     0
  3
________________________________
 72
    65
 73
     0
 40
0.0
  0
LTYPE
  5
45
330
5
100
AcDbSymbolTableRecord
100
AcDbLinetypeTableRecord
  2
LINE_7
 70
     0
  3
________________________________
 72
    65
 73
     0
 40
0.0
  0
LTYPE
  5
46
330
5
100
AcDbSymbolTableRecord
100
AcDbLinetypeTableRecord
  2
LINE_8
 70
     0
  3
________________________________
 72
    65
 73
     0
 40
0.0
  0
LTYPE
  5
47
330
5
100
AcDbSymbolTableRecord
100
AcDbLinetypeTableRecord
  2
LINE_9
 70
     0
  3
________________________________
 72
    65
 73
     0
 40
0.0
  0
LTYPE
  5
48
330
5
100
AcDbSymbolTableRecord
100
AcDbLinetypeTableRecord
  2
LINE_10
 70
     0
  3
________________________________
 72
    65
 73
     0
 40
0.0
  0
LTYPE
  5
49
330
5
100
AcDbSymbolTableRecord
100
AcDbLinetypeTableRecord
  2
LINE_11
 70
     0
  3
________________________________
 72
    65
 73
     0
 40
0.0
  0
LTYPE
  5
4A
330
5
100
AcDbSymbolTableRecord
100
AcDbLinetypeTableRecord
  2
LINE_12
 70
     0
  3
________________________________
 72
    65
 73
     0
 40
0.0
  0
LTYPE
  5
4B
330
5
100
AcDbSymbolTableRecord
100
AcDbLinetypeTableRecord
  2
LINE_13
 70
     0
  3
________________________________
 72
    65
 73
     0
 40
0.0
  0
LTYPE
  5
4C
330
5
100
AcDbSymbolTableRecord
100
AcDbLinetypeTableRecord
  2
LINE_14
 70
     0
  3
________________________________
 72
    65
 73
     0
 40
0.0
  0
LTYPE
  5
4D
330
5
100
AcDbSymbolTableRecord
100
AcDbLinetypeTableRecord
  2
LINE_15
 70
     0
  3
________________________________
 72
    65
 73
     0
 40
0.0
  0
LTYPE
  5
4E
330
5
100
AcDbSymbolTableRecord
100
AcDbLinetypeTableRecord
  2
LINE_16
 70
     0
  3
________________________________
 72
    65
 73
     0
 40
0.0
  0
LTYPE
  5
4F
330
5
100
AcDbSymbolTableRecord
100
AcDbLinetypeTableRecord
  2
LINE_17
 70
     0
  3
________________________________
 72
    65
 73
     0
 40
0.0
  0
LTYPE
  5
50
330
5
100
AcDbSymbolTableRecord
100
AcDbLinetypeTableRecord
  2
LINE_18
 70
     0
  3
________________________________
 72
    65
 73
     0
 40
0.0
  0
LTYPE
  5
51
330
5
100
AcDbSymbolTableRecord
100
AcDbLinetypeTableRecord
  2
LINE_19
 70
     0
  3
________________________________
 72
    65
 73
     0
 40
0.0
  0
ENDTAB
  0
TABLE
  2
LAYER
  5
2
330
0
100
AcDbSymbolTable
 70
     4
  0
LAYER
  5
10
330
2
100
AcDbSymbolTableRecord
100
AcDbLayerTableRecord
  2
0
 70
     0
 62
     7
  6
CONTINUOUS
370
    -3
390
40C
  0
LAYER
  5
53
330
2
100
AcDbSymbolTableRecord
100
AcDbLayerTableRecord
  2
DEFAULT
 70
     0
 62
     1
  6
CONTINUOUS
370
    -3
390
40C
  0
LAYER
  5
5C
330
2
100
AcDbSymbolTableRecord
100
AcDbLayerTableRecord
  2
A
 70
     0
 62
     1
  6
CONTINUOUS
370
    -3
390
40C
  0
LAYER
  5
15B
330
2
100
AcDbSymbolTableRecord
100
AcDbLayerTableRecord
  2
B
 70
     0
 62
     1
  6
CONTINUOUS
370
    -3
390
40C
  0
ENDTAB
  0
TABLE
  2
STYLE
  5
3
330
0
100
AcDbSymbolTable
 70
     2
  0
STYLE
  5
11
330
3
100
AcDbSymbolTableRecord
100
AcDbTextStyleTableRecord
  2
STANDARD
 70
     0
 40
0.0
 41
1.0
 50
0.0
 71
     0
 42
0.2
  3
txt
  4

  0
STYLE
  5
92
330
3
100
AcDbSymbolTableRecord
100
AcDbTextStyleTableRecord
  2
ARIAL
 70
     0
 40
2.657142857142857
 41
0.9200000000000001
 50
0.0
 71
     0
 42
0.5
  3
ARIAL.TTF
  4

1001
ACAD
1000
Arial
1071
       34
  0
ENDTAB
  0
TABLE
  2
VIEW
  5
6
330
0
100
AcDbSymbolTable
 70
     1
  0
VIEW
  5
52
330
6
100
AcDbSymbolTableRecord
100
AcDbViewTableRecord
  2
VIEW
 70
     0
 40
1.0
 10
0.0
 20
0.0
 41
1.0
 11
0.0
 21
0.0
 31
1.0
 12
0.0
 22
0.0
 32
0.0
 42
50.0
 43
0.0
 44
0.0
 50
0.0
 71
     0
281
     0
 72
     0
  0
ENDTAB
  0
TABLE
  2
UCS
  5
7
330
0
100
AcDbSymbolTable
 70
     0
  0
ENDTAB
  0
TABLE
  2
APPID
  5
9
330
0
100
AcDbSymbolTable
 70
     1
  0
APPID
  5
12
330
9
100
AcDbSymbolTableRecord
100
AcDbRegAppTableRecord
  2
ACAD
 70
     0
  0
ENDTAB
  0
TABLE
  2
DIMSTYLE
  5
A
330
0
100
AcDbSymbolTable
 70
     1
100
AcDbDimStyleTable
 71
     0
  0
DIMSTYLE
105
27
330
A
100
AcDbSymbolTableRecord
100
AcDbDimStyleTableRecord
  2
STANDARD
 70
     0
340
11
  0
ENDTAB
  0
TABLE
  2
BLOCK_RECORD
  5
1
330
0
100
AcDbSymbolTable
 70
    23
  0
BLOCK_RECORD
  5
1F
330
1
100
AcDbSymbolTableRecord
100
AcDbBlockTableRecord
  2
*MODEL_SPACE
340
40D
  0
BLOCK_RECORD
  5
1B
330
1
100
AcDbSymbolTableRecord
100
AcDbBlockTableRecord
  2
*PAPER_SPACE
340
40E
  0
BLOCK_RECORD
  5
54
330
1
100
AcDbSymbolTableRecord
100
AcDbBlockTableRecord
  2
14
340
0
102
{BLKREFS
331
CB
102
}
  0
BLOCK_RECORD
  5
162
330
1
100
AcDbSymbolTableRecord
100
AcDbBlockTableRecord
  2
004C0_000_0_3_1
340
0
102
{BLKREFS
331
16E
331
172
102
}
  0
BLOCK_RECORD
  5
177
330
1
100
AcDbSymbolTableRecord
100
AcDbBlockTableRecord
  2
006C0_001_0_3_1
340
0
102
{BLKREFS
331
183
331
245
102
}
  0
BLOCK_RECORD
  5
187
330
1
100
AcDbSymbolTableRecord
100
AcDbBlockTableRecord
  2
_I444_KNX_0_3_1
340
0
102
{BLKREFS
331
1E3
102
}
  0
BLOCK_RECORD
  5
1F9
330
1
100
AcDbSymbolTableRecord
100
AcDbBlockTableRecord
  2
X12C0_X01_0_3_1
340
0
102
{BLKREFS
331
241
331
265
331
295
331
299
102
}
  0
BLOCK_RECORD
  5
249
330
1
100
AcDbSymbolTableRecord
100
AcDbBlockTableRecord
  2
H10C0N_H01_0_3_1
340
0
102
{BLKREFS
331
25D
102
}
  0
BLOCK_RECORD
  5
269
330
1
100
AcDbSymbolTableRecord
100
AcDbBlockTableRecord
  2
M01P1N_M01_0_3_1
340
0
102
{BLKREFS
331
280
102
}
  0
BLOCK_RECORD
  5
286
330
1
100
AcDbSymbolTableRecord
100
AcDbBlockTableRecord
  2
018C0_001_0_3_1
340
0
102
{BLKREFS
331
291
102
}
  0
BLOCK_RECORD
  5
29D
330
1
100
AcDbSymbolTableRecord
100
AcDbBlockTableRecord
  2
Y01P2N_Y01_0_3_1
340
0
102
{BLKREFS
331
2AF
102
}
  0
BLOCK_RECORD
  5
2B5
330
1
100
AcDbSymbolTableRecord
100
AcDbBlockTableRecord
  2
Y03C0_Y01_0_3_1
340
0
102
{BLKREFS
331
2D3
102
}
  0
BLOCK_RECORD
  5
2D9
330
1
100
AcDbSymbolTableRecord
100
AcDbBlockTableRecord
  2
008C0_001_0_3_1
340
0
102
{BLKREFS
331
2E4
102
}
  0
BLOCK_RECORD
  5
2E8
330
1
100
AcDbSymbolTableRecord
100
AcDbBlockTableRecord
  2
DECTEUR_TEMP___LUM_KNX_0_3
340
0
102
{BLKREFS
331
312
102
}
  0
BLOCK_RECORD
  5
31C
330
1
100
AcDbSymbolTableRecord
100
AcDbBlockTableRecord
  2
DECTEUR_TEMP___LUM_2_KNX_0
340
0
102
{BLKREFS
331
354
102
}
  0
BLOCK_RECORD
  5
35E
330
1
100
AcDbSymbolTableRecord
100
AcDbBlockTableRecord
  2
INTERRUPTEUR_KNX_0_3_1
340
0
102
{BLKREFS
331
382
331
38C
102
}
  0
BLOCK_RECORD
  5
397
330
1
100
AcDbSymbolTableRecord
100
AcDbBlockTableRecord
  2
DECTEUR_MOUVEMENT_KNX_0_3_
340
0
102
{BLKREFS
331
3CB
102
}
  0
ENDTAB
  0
ENDSEC
  0
SECTION
  2
BLOCKS
  0
BLOCK
  5
20
330
1F
100
AcDbEntity
  8
0
100
AcDbBlockBegin
  2
*MODEL_SPACE
 70
     0
 10
0.0
 20
0.0
 30
0.0
  3
*MODEL_SPACE
  1

  0
ENDBLK
  5
21
330
1F
100
AcDbEntity
  8
0
100
AcDbBlockEnd
  0
BLOCK
  5
1C
330
1B
100
AcDbEntity
 67
     1
  8
0
100
AcDbBlockBegin
  2
*PAPER_SPACE
 70
     0
 10
0.0
 20
0.0
 30
0.0
  3
*PAPER_SPACE
  1

  0
ENDBLK
  5
1D
330
1B
100
AcDbEntity
 67
     1
  8
0
100
AcDbBlockEnd
  0
BLOCK
  5
C9
330
54
100
AcDbEntity
  8
0
100
AcDbBlockBegin
  2
14
 70
     2
 10
0.0
 20
0.0
 30
0.0
  3
14
  1

  0
LWPOLYLINE
  5
55
330
54
100
AcDbEntity
  8
A
  6
EPAIS
 62
     9
100
AcDbPolyline
 90
        5
 70
     0
 43
0.0
 10
0.0
 20
0.0
 10
0.0
 20
20.0
 10
297.0
 20
20.0
 10
297.0
 20
0.0
 10
0.0
 20
0.0
  0
LWPOLYLINE
  5
5D
330
54
100
AcDbEntity
  8
A
  6
EPAIS
 62
     9
100
AcDbPolyline
 90
        5
 70
     0
 43
0.0
 10
140.0
 20
0.0
 10
140.0
 20
20.0
 10
203.0
 20
20.0
 10
203.0
 20
0.0
 10
140.0
 20
0.0
  0
LWPOLYLINE
  5
64
330
54
100
AcDbEntity
  8
A
  6
EPAIS
 62
     9
100
AcDbPolyline
 90
        5
 70
     0
 43
0.0
 10
202.9814453125
 20
20.0
 10
202.9814453125
 20
0.0
 10
239.9814453124999
 20
0.0
 10
239.9814453124999
 20
20.0
 10
202.9814453125
 20
20.0
  0
LWPOLYLINE
  5
6B
330
54
100
AcDbEntity
  8
A
  6
EPAIS
 62
     9
100
AcDbPolyline
 90
        5
 70
     0
 43
0.0
 10
140.0
 20
20.0
 10
140.0
 20
13.5
 10
240.0
 20
13.5
 10
240.0
 20
20.0
 10
140.0
 20
20.0
  0
LINE
  5
72
330
54
100
AcDbEntity
  8
A
  6
MOYEN
 62
     4
100
AcDbLine
 10
140.0
 20
10.0
 30
0.0
 11
240.0
 21
10.0
 31
0.0
  0
LINE
  5
73
330
54
100
AcDbEntity
  8
A
  6
MOYEN
 62
     4
100
AcDbLine
 10
140.0
 20
7.5
 30
0.0
 11
240.0
 21
7.5
 31
0.0
  0
LINE
  5
74
330
54
100
AcDbEntity
  8
A
  6
MOYEN
 62
     4
100
AcDbLine
 10
240.0
 20
5.0
 30
0.0
 11
140.0
 21
5.0
 31
0.0
  0
LINE
  5
75
330
54
100
AcDbEntity
  8
A
  6
MOYEN
 62
     4
100
AcDbLine
 10
140.0
 20
2.5
 30
0.0
 11
240.0
 21
2.5
 31
0.0
  0
LINE
  5
76
330
54
100
AcDbEntity
  8
A
  6
EPAIS
 62
     9
100
AcDbLine
 10
240.0
 20
5.0
 30
0.0
 11
297.0
 21
5.0
 31
0.0
  0
LINE
  5
77
330
54
100
AcDbEntity
  8
A
  6
MOYEN
 62
     4
100
AcDbLine
 10
171.5
 20
20.0
 30
0.0
 11
171.5
 21
13.5
 31
0.0
  0
LINE
  5
78
330
54
100
AcDbEntity
  8
A
  6
MOYEN
 62
     4
100
AcDbLine
 10
221.4999999999999
 20
13.5
 30
0.0
 11
221.4999999999999
 21
0.0
 31
0.0
  0
IMAGE
  5
7C
330
54
100
AcDbEntity
  8
A
  6
FIN
 62
     0
 92
      140
310
8C000000010000008400000006000000050000000000000078756F400000805613281A4000000000000000000000000078756F4001000000CA6E32400000000000000000000004DFFDE1714001000000CA6E32400000000000000000000004DFFDE171400000805613281A4000000000000000000000000078756F40000080
310
5613281A400000000000000000
100
AcDbRasterImage
 90
        0
 10
251.6708984375
 20
6.53913626819849
 30
0.0
 11
0.0938789695501328
 21
0.0
 31
0.0
 12
0.0
 22
0.0868148431181908
 32
0.0
 13
367.0
 23
137.0
340
7A
 70
     3
280
     0
281
    50
282
    50
283
     0
360
7D
 71
     1
 91
        2
 14
-0.5
 24
-0.5
 14
366.5
 24
136.4999999999999
  0
ATTDEF
  5
7E
330
54
100
AcDbEntity
  8
A
  6
FIN
 62
     7
100
AcDbText
 10
282.8171997070313
 20
1.607490219388688
 30
0.0
 40
1.992857142857141
  1

 41
0.9200000000000001
 72
     2
 11
282.8171997070313
 21
2.603918790817259
 31
0.0
100
AcDbAttributeDefinition
  3

  2
$FOLNUM
 70
     0
 74
     2
  0
ATTDEF
  5
7F
330
54
100
AcDbEntity
  8
A
  6
FIN
 62
     7
100
AcDbText
 10
285.0936889648437
 20
1.664779342923845
 30
0.0
 40
1.992857142857141
  1

 41
0.9200000000000001
 11
285.0936889648437
 21
2.661207914352416
 31
0.0
100
AcDbAttributeDefinition
  3

  2
$NBFOLGR
 70
     0
 74
     2
  0
ATTDEF
  5
80
330
54
100
AcDbEntity
  8
A
  6
FIN
 62
     7
100
AcDbText
 10
221.9862518310546
 20
16.8684196472168
 30
0.0
 40
1.992857142857141
  1

 41
0.9200000000000001
 72
     4
 11
221.9862518310546
 21
16.8684196472168
 31
0.0
100
AcDbAttributeDefinition
  3

  2
$DOSSIER(N-1)
 70
     0
 74
     2
  0
ATTDEF
  5
81
330
54
100
AcDbEntity
  8
A
  6
FIN
 62
     7
100
AcDbText
 10
156.6351318359375
 20
15.96512309483119
 30
0.0
 40
1.992857142857141
  1

 41
0.9200000000000001
 11
156.6351318359375
 21
16.96155166625977
 31
0.0
100
AcDbAttributeDefinition
  3

  2
$FOLREALI
 70
     0
 74
     2
  0
ATTDEF
  5
82
330
54
100
AcDbEntity
  8
A
  6
FIN
 62
     7
100
AcDbText
 10
179.9422607421875
 20
15.98519030979701
 30
0.0
 40
1.992857142857141
  1

 41
0.9200000000000001
 11
179.9422607421875
 21
16.98161888122559
 31
0.0
100
AcDbAttributeDefinition
  3

  2
$REV_DATE:X
 70
     0
 74
     2
  0
ATTDEF
  5
83
330
54
100
AcDbEntity
  8
A
  6
FIN
 62
     7
100
AcDbText
 10
3.636573791503906
 20
12.95742307390485
 30
0.0
 40
3.321428571428572
  1

 41
0.9200000000000001
 11
3.636573791503906
 21
14.61813735961914
 31
0.0
100
AcDbAttributeDefinition
  3

  2
$DOSSIER(N-3)
 70
     0
 74
     2
  0
ATTDEF
  5
84
330
54
100
AcDbEntity
  8
A
  6
FIN
 62
     7
100
AcDbText
 10
3.618404388427733
 20
4.105261666434151
 30
0.0
 40
3.321428571428572
  1

 41
0.9200000000000001
 11
3.618404388427733
 21
5.765975952148437
 31
0.0
100
AcDbAttributeDefinition
  3

  2
$FOLTITRE
 70
     0
 74
     2
  0
ATTDEF
  5
85
330
54
100
AcDbEntity
  8
A
  6
FIN
 62
     7
100
AcDbText
 10
141.279098510742
 20
8.208684866768972
 30
0.0
 40
1.328571428571427
  1

 41
0.9200000000000001
 11
141.279098510742
 21
8.872970581054687
 31
0.0
100
AcDbAttributeDefinition
  3

  2
$REV_LIB:X
 70
     0
 74
     2
  0
ATTDEF
  5
86
330
54
100
AcDbEntity
  8
A
  6
FIN
 62
     7
100
AcDbText
 10
206.1279602050781
 20
8.217974608285086
 30
0.0
 40
1.328571428571427
  1

 41
0.9200000000000001
 11
206.1279602050781
 21
8.8822603225708
 31
0.0
100
AcDbAttributeDefinition
  3

  2
$REV_DATE:X
 70
     0
 74
     2
  0
ATTDEF
  5
87
330
54
100
AcDbEntity
  8
A
  6
FIN
 62
     7
100
AcDbText
 10
224.9319915771484
 20
8.217974608285086
 30
0.0
 40
1.328571428571427
  1

 41
0.9200000000000001
 11
224.9319915771484
 21
8.8822603225708
 31
0.0
100
AcDbAttributeDefinition
  3

  2
$REV_NOM:X
 70
     0
 74
     2
  0
ATTDEF
  5
88
330
54
100
AcDbEntity
  8
A
  6
FIN
 62
     7
100
AcDbText
 10
141.2750091552734
 20
5.786786978585379
 30
0.0
 40
1.328571428571427
  1

 41
0.9200000000000001
 11
141.2750091552734
 21
6.451072692871092
 31
0.0
100
AcDbAttributeDefinition
  3

  2
$REV_LIB:X+1
 70
     0
 74
     2
  0
ATTDEF
  5
89
330
54
100
AcDbEntity
  8
A
  6
FIN
 62
     7
100
AcDbText
 10
206.1238708496094
 20
5.796075766427177
 30
0.0
 40
1.328571428571427
  1

 41
0.9200000000000001
 11
206.1238708496094
 21
6.460361480712891
 31
0.0
100
AcDbAttributeDefinition
  3

  2
$REV_DATE:X+1
 70
     0
 74
     2
  0
ATTDEF
  5
8A
330
54
100
AcDbEntity
  8
A
  6
FIN
 62
     7
100
AcDbText
 10
224.9279022216795
 20
5.796075766427177
 30
0.0
 40
1.328571428571427
  1

 41
0.9200000000000001
 11
224.9279022216795
 21
6.460361480712891
 31
0.0
100
AcDbAttributeDefinition
  3

  2
$REV_NOM:X+1
 70
     0
 74
     2
  0
ATTDEF
  5
8B
330
54
100
AcDbEntity
  8
A
  6
FIN
 62
     7
100
AcDbText
 10
141.2959594726563
 20
3.234682743889943
 30
0.0
 40
1.328571428571427
  1

 41
0.9200000000000001
 11
141.2959594726563
 21
3.898968458175657
 31
0.0
100
AcDbAttributeDefinition
  3

  2
$REV_LIB:X+2
 70
     0
 74
     2
  0
ATTDEF
  5
8C
330
54
100
AcDbEntity
  8
A
  6
FIN
 62
     7
100
AcDbText
 10
206.1448211669921
 20
3.243971531731742
 30
0.0
 40
1.328571428571427
  1

 41
0.9200000000000001
 11
206.1448211669921
 21
3.908257246017456
 31
0.0
100
AcDbAttributeDefinition
  3

  2
$REV_DATE:X+2
 70
     0
 74
     2
  0
ATTDEF
  5
8D
330
54
100
AcDbEntity
  8
A
  6
FIN
 62
     7
100
AcDbText
 10
224.9488525390625
 20
3.243971531731742
 30
0.0
 40
1.328571428571427
  1

 41
0.9200000000000001
 11
224.9488525390625
 21
3.908257246017456
 31
0.0
100
AcDbAttributeDefinition
  3

  2
$REV_NOM:X+2
 70
     0
 74
     2
  0
ATTDEF
  5
8E
330
54
100
AcDbEntity
  8
A
  6
FIN
 62
     7
100
AcDbText
 10
141.2657165527344
 20
0.6825732639857703
 30
0.0
 40
1.328571428571427
  1

 41
0.9200000000000001
 11
141.2657165527344
 21
1.346858978271484
 31
0.0
100
AcDbAttributeDefinition
  3

  2
$REV_LIB:X+3
 70
     0
 74
     2
  0
ATTDEF
  5
8F
330
54
100
AcDbEntity
  8
A
  6
FIN
 62
     7
100
AcDbText
 10
206.1145782470703
 20
0.6918620518275671
 30
0.0
 40
1.328571428571427
  1

 41
0.9200000000000001
 11
206.1145782470703
 21
1.356147766113281
 31
0.0
100
AcDbAttributeDefinition
  3

  2
$REV_DATE:X+3
 70
     0
 74
     2
  0
ATTDEF
  5
90
330
54
100
AcDbEntity
  8
A
  6
FIN
 62
     7
100
AcDbText
 10
224.9186096191404
 20
0.6918620518275671
 30
0.0
 40
1.328571428571427
  1

 41
0.9200000000000001
 11
224.9186096191404
 21
1.356147766113281
 31
0.0
100
AcDbAttributeDefinition
  3

  2
$REV_NOM:X+3
 70
     0
 74
     2
  0
LINE
  5
91
330
54
100
AcDbEntity
  8
A
  6
FIN
 62
     7
100
AcDbLine
 10
0.0
 20
205.0
 30
0.0
 11
297.0
 21
205.0
 31
0.0
  0
TEXT
  5
93
330
54
100
AcDbEntity
  8
A
  6
FIN
 62
     7
100
AcDbText
 10
7.425001144409178
 20
205.5
 30
0.0
 40
2.657142857142857
  1
1
 41
0.9200000000000001
  7
ARIAL
100
AcDbText
  0
LINE
  5
94
330
54
100
AcDbEntity
  8
A
  6
FIN
 62
     7
100
AcDbLine
 10
14.85000133514402
 20
205.0
 30
0.0
 11
14.85000133514402
 21
210.0
 31
0.0
  0
TEXT
  5
95
330
54
100
AcDbEntity
  8
A
  6
FIN
 62
     7
100
AcDbText
 10
22.27500152587891
 20
205.5
 30
0.0
 40
2.657142857142857
  1
2
 41
0.9200000000000001
  7
ARIAL
100
AcDbText
  0
LINE
  5
96
330
54
100
AcDbEntity
  8
A
  6
FIN
 62
     7
100
AcDbLine
 10
29.70000267028807
 20
205.0
 30
0.0
 11
29.70000267028807
 21
210.0
 31
0.0
  0
TEXT
  5
97
330
54
100
AcDbEntity
  8
A
  6
FIN
 62
     7
100
AcDbText
 10
37.12500381469727
 20
205.5
 30
0.0
 40
2.657142857142857
  1
3
 41
0.9200000000000001
  7
ARIAL
100
AcDbText
  0
LINE
  5
98
330
54
100
AcDbEntity
  8
A
  6
FIN
 62
     7
100
AcDbLine
 10
44.55000305175781
 20
205.0
 30
0.0
 11
44.55000305175781
 21
210.0
 31
0.0
  0
TEXT
  5
99
330
54
100
AcDbEntity
  8
A
  6
FIN
 62
     7
100
AcDbText
 10
51.97500610351563
 20
205.5
 30
0.0
 40
2.657142857142857
  1
4
 41
0.9200000000000001
  7
ARIAL
100
AcDbText
  0
LINE
  5
9A
330
54
100
AcDbEntity
  8
A
  6
FIN
 62
     7
100
AcDbLine
 10
59.40000534057617
 20
205.0
 30
0.0
 11
59.40000534057617
 21
210.0
 31
0.0
  0
TEXT
  5
9B
330
54
100
AcDbEntity
  8
A
  6
FIN
 62
     7
100
AcDbText
 10
66.82500457763672
 20
205.5
 30
0.0
 40
2.657142857142857
  1
5
 41
0.9200000000000001
  7
ARIAL
100
AcDbText
  0
LINE
  5
9C
330
54
100
AcDbEntity
  8
A
  6
FIN
 62
     7
100
AcDbLine
 10
74.25000762939453
 20
205.0
 30
0.0
 11
74.25000762939453
 21
210.0
 31
0.0
  0
TEXT
  5
9D
330
54
100
AcDbEntity
  8
A
  6
FIN
 62
     7
100
AcDbText
 10
81.67500305175781
 20
205.5
 30
0.0
 40
2.657142857142857
  1
6
 41
0.9200000000000001
  7
ARIAL
100
AcDbText
  0
LINE
  5
9E
330
54
100
AcDbEntity
  8
A
  6
FIN
 62
     7
100
AcDbLine
 10
89.10000610351563
 20
205.0
 30
0.0
 11
89.10000610351563
 21
210.0
 31
0.0
  0
TEXT
  5
9F
330
54
100
AcDbEntity
  8
A
  6
FIN
 62
     7
100
AcDbText
 10
96.52500152587892
 20
205.5
 30
0.0
 40
2.657142857142857
  1
7
 41
0.9200000000000001
  7
ARIAL
100
AcDbText
  0
LINE
  5
A0
330
54
100
AcDbEntity
  8
A
  6
FIN
 62
     7
100
AcDbLine
 10
103.9500045776367
 20
205.0
 30
0.0
 11
103.9500045776367
 21
210.0
 31
0.0
  0
TEXT
  5
A1
330
54
100
AcDbEntity
  8
A
  6
FIN
 62
     7
100
AcDbText
 10
111.375
 20
205.5
 30
0.0
 40
2.657142857142857
  1
8
 41
0.9200000000000001
  7
ARIAL
100
AcDbText
  0
LINE
  5
A2
330
54
100
AcDbEntity
  8
A
  6
FIN
 62
     7
100
AcDbLine
 10
118.8000030517577
 20
205.0
 30
0.0
 11
118.8000030517577
 21
210.0
 31
0.0
  0
TEXT
  5
A3
330
54
100
AcDbEntity
  8
A
  6
FIN
 62
     7
100
AcDbText
 10
126.2250061035155
 20
205.5
 30
0.0
 40
2.657142857142857
  1
9
 41
0.9200000000000001
  7
ARIAL
100
AcDbText
  0
LINE
  5
A4
330
54
100
AcDbEntity
  8
A
  6
FIN
 62
     7
100
AcDbLine
 10
133.6500091552734
 20
205.0
 30
0.0
 11
133.6500091552734
 21
210.0
 31
0.0
  0
TEXT
  5
A5
330
54
100
AcDbEntity
  8
A
  6
FIN
 62
     7
100
AcDbText
 10
141.0750122070313
 20
205.5
 30
0.0
 40
2.657142857142857
  1
10
 41
0.9200000000000001
  7
ARIAL
100
AcDbText
  0
LINE
  5
A6
330
54
100
AcDbEntity
  8
A
  6
FIN
 62
     7
100
AcDbLine
 10
148.500015258789
 20
205.0
 30
0.0
 11
148.500015258789
 21
210.0
 31
0.0
  0
TEXT
  5
A7
330
54
100
AcDbEntity
  8
A
  6
FIN
 62
     7
100
AcDbText
 10
155.9250183105469
 20
205.5
 30
0.0
 40
2.657142857142857
  1
11
 41
0.9200000000000001
  7
ARIAL
100
AcDbText
  0
LINE
  5
A8
330
54
100
AcDbEntity
  8
A
  6
FIN
 62
     7
100
AcDbLine
 10
163.3500213623046
 20
205.0
 30
0.0
 11
163.3500213623046
 21
210.0
 31
0.0
  0
TEXT
  5
A9
330
54
100
AcDbEntity
  8
A
  6
FIN
 62
     7
100
AcDbText
 10
170.7750244140624
 20
205.5
 30
0.0
 40
2.657142857142857
  1
12
 41
0.9200000000000001
  7
ARIAL
100
AcDbText
  0
LINE
  5
AA
330
54
100
AcDbEntity
  8
A
  6
FIN
 62
     7
100
AcDbLine
 10
178.2000274658203
 20
205.0
 30
0.0
 11
178.2000274658203
 21
210.0
 31
0.0
  0
TEXT
  5
AB
330
54
100
AcDbEntity
  8
A
  6
FIN
 62
     7
100
AcDbText
 10
185.6250305175781
 20
205.5
 30
0.0
 40
2.657142857142857
  1
13
 41
0.9200000000000001
  7
ARIAL
100
AcDbText
  0
LINE
  5
AC
330
54
100
AcDbEntity
  8
A
  6
FIN
 62
     7
100
AcDbLine
 10
193.0500335693359
 20
205.0
 30
0.0
 11
193.0500335693359
 21
210.0
 31
0.0
  0
TEXT
  5
AD
330
54
100
AcDbEntity
  8
A
  6
FIN
 62
     7
100
AcDbText
 10
200.4750366210938
 20
205.5
 30
0.0
 40
2.657142857142857
  1
14
 41
0.9200000000000001
  7
ARIAL
100
AcDbText
  0
LINE
  5
AE
330
54
100
AcDbEntity
  8
A
  6
FIN
 62
     7
100
AcDbLine
 10
207.9000396728514
 20
205.0
 30
0.0
 11
207.9000396728514
 21
210.0
 31
0.0
  0
TEXT
  5
AF
330
54
100
AcDbEntity
  8
A
  6
FIN
 62
     7
100
AcDbText
 10
215.3250427246093
 20
205.5
 30
0.0
 40
2.657142857142857
  1
15
 41
0.9200000000000001
  7
ARIAL
100
AcDbText
  0
LINE
  5
B0
330
54
100
AcDbEntity
  8
A
  6
FIN
 62
     7
100
AcDbLine
 10
222.7500457763671
 20
205.0
 30
0.0
 11
222.7500457763671
 21
210.0
 31
0.0
  0
TEXT
  5
B1
330
54
100
AcDbEntity
  8
A
  6
FIN
 62
     7
100
AcDbText
 10
230.1750488281249
 20
205.5
 30
0.0
 40
2.657142857142857
  1
16
 41
0.9200000000000001
  7
ARIAL
100
AcDbText
  0
LINE
  5
B2
330
54
100
AcDbEntity
  8
A
  6
FIN
 62
     7
100
AcDbLine
 10
237.6000518798828
 20
205.0
 30
0.0
 11
237.6000518798828
 21
210.0
 31
0.0
  0
TEXT
  5
B3
330
54
100
AcDbEntity
  8
A
  6
FIN
 62
     7
100
AcDbText
 10
245.0250549316406
 20
205.5
 30
0.0
 40
2.657142857142857
  1
17
 41
0.9200000000000001
  7
ARIAL
100
AcDbText
  0
LINE
  5
B4
330
54
100
AcDbEntity
  8
A
  6
FIN
 62
     7
100
AcDbLine
 10
252.4500579833984
 20
205.0
 30
0.0
 11
252.4500579833984
 21
210.0
 31
0.0
  0
TEXT
  5
B5
330
54
100
AcDbEntity
  8
A
  6
FIN
 62
     7
100
AcDbText
 10
259.8750610351562
 20
205.5
 30
0.0
 40
2.657142857142857
  1
18
 41
0.9200000000000001
  7
ARIAL
100
AcDbText
  0
LINE
  5
B6
330
54
100
AcDbEntity
  8
A
  6
FIN
 62
     7
100
AcDbLine
 10
267.300048828125
 20
205.0
 30
0.0
 11
267.300048828125
 21
210.0
 31
0.0
  0
TEXT
  5
B7
330
54
100
AcDbEntity
  8
A
  6
FIN
 62
     7
100
AcDbText
 10
274.7250671386719
 20
205.5
 30
0.0
 40
2.657142857142857
  1
19
 41
0.9200000000000001
  7
ARIAL
100
AcDbText
  0
LINE
  5
B8
330
54
100
AcDbEntity
  8
A
  6
FIN
 62
     7
100
AcDbLine
 10
282.1500549316406
 20
205.0
 30
0.0
 11
282.1500549316406
 21
210.0
 31
0.0
  0
TEXT
  5
B9
330
54
100
AcDbEntity
  8
A
  6
FIN
 62
     7
100
AcDbText
 10
289.5750732421875
 20
205.5
 30
0.0
 40
2.657142857142857
  1
20
 41
0.9200000000000001
  7
ARIAL
100
AcDbText
  0
LINE
  5
BA
330
54
100
AcDbEntity
  8
A
  6
FIN
 62
     7
100
AcDbLine
 10
297.0000610351563
 20
205.0
 30
0.0
 11
297.0000610351563
 21
210.0
 31
0.0
  0
LWPOLYLINE
  5
BB
330
54
100
AcDbEntity
  8
A
  6
FIN
 62
     7
100
AcDbPolyline
 90
        5
 70
     0
 43
0.0
 10
0.0
 20
20.0
 10
0.0
 20
210.0
 10
297.0
 20
210.0
 10
297.0
 20
20.0
 10
0.0
 20
20.0
  0
LWPOLYLINE
  5
C2
330
54
100
AcDbEntity
  8
A
  6
FIN
 62
     7
100
AcDbPolyline
 90
        5
 70
     0
 43
0.0
 10
0.0
 20
0.0
 10
0.0
 20
210.0
 10
297.0
 20
210.0
 10
297.0
 20
0.0
 10
0.0
 20
0.0
  0
ENDBLK
  5
CA
330
54
100
AcDbEntity
  8
0
100
AcDbBlockEnd
  0
BLOCK
  5
16C
330
162
100
AcDbEntity
  8
0
100
AcDbBlockBegin
  2
004C0_000_0_3_1
 70
     2
 10
0.0
 20
0.0
 30
0.0
  3
004C0_000_0_3_1
  1

  0
ATTDEF
  5
163
330
162
100
AcDbEntity
  8
A
  6
FIN
 62
     3
100
AcDbText
 10
-4.204545474233043
 20
0.3503787808176693
 30
0.0
 40
1.280133883697645
  1

 41
0.9200000000000001
  7
ARIAL
 72
     4
 11
-4.204545474233043
 21
0.3503787808176693
 31
0.0
100
AcDbAttributeDefinition
  3

  2
$REPERE
 70
     0
 74
     2
  0
ATTDEF
  5
164
330
162
100
AcDbEntity
  8
A
  6
FIN
 62
     1
100
AcDbText
 10
1.751893877983093
 20
1.287642083854382
 30
0.0
 40
1.629261306524275
  1

 41
0.9200000000000001
  7
ARIAL
 11
1.751893877983093
 21
2.10227273711652
 31
0.0
100
AcDbAttributeDefinition
  3

  2
$NUM_EQUI
 70
     0
 74
     2
  0
ATTDEF
  5
165
330
162
100
AcDbEntity
  8
A
  6
FIN
 62
     1
100
AcDbText
 10
-3.854161185206976
 20
0.3504001610199339
 30
0.0
 40
1.280133883697645
  1

 41
0.9200000000000001
  7
ARIAL
 72
     4
 11
-3.854161185206976
 21
0.3504001610199339
 31
0.0
100
AcDbAttributeDefinition
  3

  2
$POS_REFCRO_1
 70
     0
 74
     2
  0
LINE
  5
166
330
162
100
AcDbEntity
  8
A
  6
CYAN
 62
     4
100
AcDbLine
 10
-7.007575511932372
 20
-1.401515123270677
 30
0.0
 11
-7.007575511932372
 21
1.401515123270677
 31
0.0
  0
LINE
  5
167
330
162
100
AcDbEntity
  8
A
  6
CYAN
 62
     4
100
AcDbLine
 10
-7.007575511932372
 20
1.401515123270677
 30
0.0
 11
-1.751893877983093
 21
1.401515123270677
 31
0.0
  0
LINE
  5
168
330
162
100
AcDbEntity
  8
A
  6
CYAN
 62
     4
100
AcDbLine
 10
-1.751893877983093
 20
1.401515123270677
 30
0.0
 11
0.0
 21
0.0
 31
0.0
  0
LINE
  5
169
330
162
100
AcDbEntity
  8
A
  6
CYAN
 62
     4
100
AcDbLine
 10
0.0
 20
0.0
 30
0.0
 11
-1.751893877983093
 21
-1.401515123270677
 31
0.0
  0
LINE
  5
16A
330
162
100
AcDbEntity
  8
A
  6
CYAN
 62
     4
100
AcDbLine
 10
-1.751893877983093
 20
-1.401515123270677
 30
0.0
 11
-7.007575511932372
 21
-1.401515123270677
 31
0.0
  0
LINE
  5
16B
330
162
100
AcDbEntity
  8
A
  6
CYAN
 62
     4
100
AcDbLine
 10
0.0
 20
0.0
 30
0.0
 11
0.7007575616353387
 21
0.0
 31
0.0
  0
ENDBLK
  5
16D
330
162
100
AcDbEntity
  8
0
100
AcDbBlockEnd
  0
BLOCK
  5
181
330
177
100
AcDbEntity
  8
0
100
AcDbBlockBegin
  2
006C0_001_0_3_1
 70
     2
 10
0.0
 20
0.0
 30
0.0
  3
006C0_001_0_3_1
  1

  0
ATTDEF
  5
178
330
177
100
AcDbEntity
  8
A
  6
FIN
 62
     3
100
AcDbText
 10
-2.803030246541354
 20
-0.4642518724444686
 30
0.0
 40
1.629261306524275
  1

 41
0.9200000000000001
  7
ARIAL
 72
     2
 11
-2.803030246541354
 21
0.3503787808176693
 31
0.0
100
AcDbAttributeDefinition
  3

  2
$REPERE
 70
     0
 74
     2
  0
ATTDEF
  5
179
330
177
100
AcDbEntity
  8
A
  6
FIN
 62
     1
100
AcDbText
 10
1.751893877983093
 20
1.287642083854382
 30
0.0
 40
1.629261306524275
  1

 41
0.9200000000000001
  7
ARIAL
 11
1.751893877983093
 21
2.10227273711652
 31
0.0
100
AcDbAttributeDefinition
  3

  2
$NUM_EQUI
 70
     0
 74
     2
  0
ATTDEF
  5
17A
330
177
100
AcDbEntity
  8
A
  6
FIN
 62
     1
100
AcDbText
 10
-3.503787755966186
 20
-0.4642304922422041
 30
0.0
 40
1.629261306524275
  1

 41
0.9200000000000001
  7
ARIAL
 72
     2
 11
-3.503787755966186
 21
0.3504001610199339
 31
0.0
100
AcDbAttributeDefinition
  3

  2
$POS_REFCRO_1
 70
     0
 74
     2
  0
LWPOLYLINE
  5
17B
330
177
100
AcDbEntity
  8
A
  6
CYAN
 62
     4
100
AcDbPolyline
 90
        4
 70
     0
 43
0.0
 10
0.0
 20
0.0
 10
-1.681818189693215
 20
0.8409090948466085
 10
-1.681818189693215
 20
-0.8409090948466085
 10
0.0
 20
0.0
  0
ENDBLK
  5
182
330
177
100
AcDbEntity
  8
0
100
AcDbBlockEnd
  0
BLOCK
  5
1E1
330
187
100
AcDbEntity
  8
0
100
AcDbBlockBegin
  2
_I444_KNX_0_3_1
 70
     2
 10
0.0
 20
0.0
 30
0.0
  3
_I444_KNX_0_3_1
  1

  0
ATTDEF
  5
188
330
187
100
AcDbEntity
  8
A
  6
FIN
 62
     3
100
AcDbText
 10
-8.759469389915466
 20
-11.55874553637845
 30
0.0
 40
2.094764536959782
  1

 41
0.9200000000000001
  7
ARIAL
 72
     2
 11
-8.759469389915466
 21
-10.51136326789856
 31
0.0
100
AcDbAttributeDefinition
  3

  2
$ETIQUETTE
 70
     0
 74
     2
  0
ATTDEF
  5
189
330
187
100
AcDbEntity
  8
A
  6
FIN
 62
     3
100
AcDbText
 10
-8.759469389915466
 20
-8.288962084988963
 30
0.0
 40
1.86201292174203
  1

 41
0.9200000000000001
  7
ARIAL
 72
     2
 11
-8.759469389915466
 21
-7.357955624117948
 31
0.0
100
AcDbAttributeDefinition
  3

  2
$LOCALISATION
 70
     0
 74
     2
  0
ATTDEF
  5
18A
330
187
100
AcDbEntity
  8
A
  6
FIN
 62
     3
100
AcDbText
 10
-8.759469389915466
 20
-5.485927870449143
 30
0.0
 40
1.86201292174203
  1

 41
0.9200000000000001
  7
ARIAL
 72
     2
 11
-8.759469389915466
 21
-4.554921409578128
 31
0.0
100
AcDbAttributeDefinition
  3

  2
$FONCTION
 70
     0
 74
     2
  0
ATTDEF
  5
18B
330
187
100
AcDbEntity
  8
A
  6
FIN
 62
     1
100
AcDbText
 10
-8.759469389915466
 20
-19.73508319889059
 30
0.0
 40
1.629261306524275
  1

 41
0.9200000000000001
  7
ARIAL
 72
     2
 11
-8.759469389915466
 21
-18.92045254562845
 31
0.0
100
AcDbAttributeDefinition
  3

  2
$POS_REFCRO_1
 70
     0
 74
     2
  0
ATTDEF
  5
18C
330
187
100
AcDbEntity
  8
A
  6
FIN
 62
     1
100
AcDbText
 10
-8.759469389915466
 20
-16.93204898435077
 30
0.0
 40
1.629261306524275
  1

 41
0.9200000000000001
  7
ARIAL
 72
     2
 11
-8.759469389915466
 21
-16.11741833108863
 31
0.0
100
AcDbAttributeDefinition
  3

  2
CODE
 70
     0
 74
     2
  0
ATTDEF
  5
18D
330
187
100
AcDbEntity
  8
A
  6
FIN
 62
     1
100
AcDbText
 10
-8.759471060651662
 20
-22.18773061830005
 30
0.0
 40
1.629261306524275
  1

 41
0.9200000000000001
  7
ARIAL
 72
     2
 11
-8.759471060651662
 21
-21.37309996503791
 31
0.0
100
AcDbAttributeDefinition
  3

  2
SYMBOLE
 70
     0
 74
     2
  0
ATTDEF
  5
18E
330
187
100
AcDbEntity
  8
A
  6
FIN
 62
     1
100
AcDbText
 10
-8.759469389915466
 20
-14.4794015649413
 30
0.0
 40
1.629261306524275
  1

 41
0.9200000000000001
  7
ARIAL
 72
     2
 11
-8.759469389915466
 21
-13.66477091167917
 31
0.0
100
AcDbAttributeDefinition
  3

  2
FABRICANT
 70
     0
 74
     2
  0
ATTDEF
  5
18F
330
187
100
AcDbEntity
  8
A
  6
FIN
 62
     1
100
AcDbText
 10
-8.75946270697068
 20
-24.64038472065428
 30
0.0
 40
1.629261306524275
  1

 41
0.9200000000000001
  7
ARIAL
 72
     2
 11
-8.75946270697068
 21
-23.82575406739215
 31
0.0
100
AcDbAttributeDefinition
  3

  2
SERIE
 70
     0
 74
     2
  0
ATTDEF
  5
190
330
187
100
AcDbEntity
  8
A
  6
FIN
 62
     1
100
AcDbText
 10
0.0
 20
-2.452651387407924
 30
0.0
 40
1.512885498915399
  1

 41
0.9200000000000001
  7
ARIAL
 72
     4
 11
0.0
 21
-2.452651387407924
 31
0.0
100
AcDbAttributeDefinition
  3

  2
$PL:1
 70
     0
 74
     2
  0
ATTDEF
  5
191
330
187
100
AcDbEntity
  8
A
  6
FIN
 62
     1
100
AcDbText
 10
7.007575511932372
 20
-2.452651387407924
 30
0.0
 40
1.512885498915399
  1

 41
0.9200000000000001
  7
ARIAL
 72
     4
 11
7.007575511932372
 21
-2.452651387407924
 31
0.0
100
AcDbAttributeDefinition
  3

  2
$PL:2
 70
     0
 74
     2
  0
ATTDEF
  5
192
330
187
100
AcDbEntity
  8
A
  6
FIN
 62
     1
100
AcDbText
 10
14.01515102386475
 20
-2.452651387407924
 30
0.0
 40
1.512885498915399
  1

 41
0.9200000000000001
  7
ARIAL
 72
     4
 11
14.01515102386475
 21
-2.452651387407924
 31
0.0
100
AcDbAttributeDefinition
  3

  2
$PL:3
 70
     0
 74
     2
  0
ATTDEF
  5
193
330
187
100
AcDbEntity
  8
A
  6
FIN
 62
     1
100
AcDbText
 10
28.03030204772948
 20
-2.452651387407924
 30
0.0
 40
1.512885498915399
  1

 41
0.9200000000000001
  7
ARIAL
 72
     4
 11
28.03030204772948
 21
-2.452651387407924
 31
0.0
100
AcDbAttributeDefinition
  3

  2
$PL:4
 70
     0
 74
     2
  0
ATTDEF
  5
194
330
187
100
AcDbEntity
  8
A
  6
FIN
 62
     1
100
AcDbText
 10
35.03787755966187
 20
-2.452651387407924
 30
0.0
 40
1.512885498915399
  1

 41
0.9200000000000001
  7
ARIAL
 72
     4
 11
35.03787755966187
 21
-2.452651387407924
 31
0.0
100
AcDbAttributeDefinition
  3

  2
$PL:5
 70
     0
 74
     2
  0
ATTDEF
  5
195
330
187
100
AcDbEntity
  8
A
  6
FIN
 62
     1
100
AcDbText
 10
42.04545307159424
 20
-2.452651387407924
 30
0.0
 40
1.512885498915399
  1

 41
0.9200000000000001
  7
ARIAL
 72
     4
 11
42.04545307159424
 21
-2.452651387407924
 31
0.0
100
AcDbAttributeDefinition
  3

  2
$PL:6
 70
     0
 74
     2
  0
ATTDEF
  5
196
330
187
100
AcDbEntity
  8
A
  6
FIN
 62
     1
100
AcDbText
 10
56.06060409545897
 20
-2.452651387407924
 30
0.0
 40
1.512885498915399
  1

 41
0.9200000000000001
  7
ARIAL
 72
     4
 11
56.06060409545897
 21
-2.452651387407924
 31
0.0
100
AcDbAttributeDefinition
  3

  2
$PL:7
 70
     0
 74
     2
  0
ATTDEF
  5
197
330
187
100
AcDbEntity
  8
A
  6
FIN
 62
     1
100
AcDbText
 10
63.06817960739135
 20
-2.452651387407924
 30
0.0
 40
1.512885498915399
  1

 41
0.9200000000000001
  7
ARIAL
 72
     4
 11
63.06817960739135
 21
-2.452651387407924
 31
0.0
100
AcDbAttributeDefinition
  3

  2
$PL:8
 70
     0
 74
     2
  0
ATTDEF
  5
198
330
187
100
AcDbEntity
  8
A
  6
FIN
 62
     1
100
AcDbText
 10
70.07575511932373
 20
-2.452651387407924
 30
0.0
 40
1.512885498915399
  1

 41
0.9200000000000001
  7
ARIAL
 72
     4
 11
70.07575511932373
 21
-2.452651387407924
 31
0.0
100
AcDbAttributeDefinition
  3

  2
$PL:9
 70
     0
 74
     2
  0
ATTDEF
  5
199
330
187
100
AcDbEntity
  8
A
  6
FIN
 62
     1
100
AcDbText
 10
84.09090614318849
 20
-2.452651387407924
 30
0.0
 40
1.512885498915399
  1

 41
0.9200000000000001
  7
ARIAL
 72
     4
 11
84.09090614318849
 21
-2.452651387407924
 31
0.0
100
AcDbAttributeDefinition
  3

  2
$PL:10
 70
     0
 74
     2
  0
ATTDEF
  5
19A
330
187
100
AcDbEntity
  8
A
  6
FIN
 62
     1
100
AcDbText
 10
91.09848165512085
 20
-2.452651387407924
 30
0.0
 40
1.512885498915399
  1

 41
0.9200000000000001
  7
ARIAL
 72
     4
 11
91.09848165512085
 21
-2.452651387407924
 31
0.0
100
AcDbAttributeDefinition
  3

  2
$PL:11
 70
     0
 74
     2
  0
ATTDEF
  5
19B
330
187
100
AcDbEntity
  8
A
  6
FIN
 62
     1
100
AcDbText
 10
98.10605716705325
 20
-2.452651387407924
 30
0.0
 40
1.512885498915399
  1

 41
0.9200000000000001
  7
ARIAL
 72
     4
 11
98.10605716705325
 21
-2.452651387407924
 31
0.0
100
AcDbAttributeDefinition
  3

  2
$PL:12
 70
     0
 74
     2
  0
ATTDEF
  5
19C
330
187
100
AcDbEntity
  8
A
  6
FIN
 62
     1
100
AcDbText
 10
0.0
 20
-24.87689273321269
 30
0.0
 40
1.512885498915399
  1

 41
0.9200000000000001
  7
ARIAL
 72
     4
 11
0.0
 21
-24.87689273321269
 31
0.0
100
AcDbAttributeDefinition
  3

  2
$PL:13
 70
     0
 74
     2
  0
ATTDEF
  5
19D
330
187
100
AcDbEntity
  8
A
  6
FIN
 62
     1
100
AcDbText
 10
7.007575511932372
 20
-24.87689273321269
 30
0.0
 40
1.512885498915399
  1

 41
0.9200000000000001
  7
ARIAL
 72
     4
 11
7.007575511932372
 21
-24.87689273321269
 31
0.0
100
AcDbAttributeDefinition
  3

  2
$PL:14
 70
     0
 74
     2
  0
ATTDEF
  5
19E
330
187
100
AcDbEntity
  8
A
  6
FIN
 62
     1
100
AcDbText
 10
14.01515102386475
 20
-24.87689273321269
 30
0.0
 40
1.512885498915399
  1

 41
0.9200000000000001
  7
ARIAL
 72
     4
 11
14.01515102386475
 21
-24.87689273321269
 31
0.0
100
AcDbAttributeDefinition
  3

  2
$PL:15
 70
     0
 74
     2
  0
ATTDEF
  5
19F
330
187
100
AcDbEntity
  8
A
  6
FIN
 62
     1
100
AcDbText
 10
21.02272653579712
 20
-24.87689273321269
 30
0.0
 40
1.512885498915399
  1

 41
0.9200000000000001
  7
ARIAL
 72
     4
 11
21.02272653579712
 21
-24.87689273321269
 31
0.0
100
AcDbAttributeDefinition
  3

  2
$PL:16
 70
     0
 74
     2
  0
CIRCLE
  5
1A0
330
187
100
AcDbEntity
  8
A
  6
SYMBOL_C
 62
     4
100
AcDbCircle
 10
28.03030204772948
 20
-0.7007568828987587
 30
0.0
 40
0.7007568828987587
  0
CIRCLE
  5
1A1
330
187
100
AcDbEntity
  8
A
  6
SYMBOL_C
 62
     4
100
AcDbCircle
 10
35.03787755966187
 20
-0.7007568828987587
 30
0.0
 40
0.7007568828987587
  0
CIRCLE
  5
1A2
330
187
100
AcDbEntity
  8
A
  6
SYMBOL_C
 62
     4
100
AcDbCircle
 10
42.04545307159424
 20
-0.7007568828987587
 30
0.0
 40
0.7007568828987587
  0
CIRCLE
  5
1A3
330
187
100
AcDbEntity
  8
A
  6
SYMBOL_C
 62
     4
100
AcDbCircle
 10
63.06817960739135
 20
-0.7007568828987587
 30
0.0
 40
0.7007568828987587
  0
CIRCLE
  5
1A4
330
187
100
AcDbEntity
  8
A
  6
SYMBOL_C
 62
     4
100
AcDbCircle
 10
56.06060409545897
 20
-0.7007568828987587
 30
0.0
 40
0.7007568828987587
  0
CIRCLE
  5
1A5
330
187
100
AcDbEntity
  8
A
  6
SYMBOL_C
 62
     4
100
AcDbCircle
 10
70.07575511932373
 20
-0.7007568828987587
 30
0.0
 40
0.7007568828987587
  0
CIRCLE
  5
1A6
330
187
100
AcDbEntity
  8
A
  6
SYMBOL_C
 62
     4
100
AcDbCircle
 10
84.09090614318849
 20
-0.7007568828987587
 30
0.0
 40
0.7007568828987587
  0
CIRCLE
  5
1A7
330
187
100
AcDbEntity
  8
A
  6
SYMBOL_C
 62
     4
100
AcDbCircle
 10
91.09848165512085
 20
-0.7007568828987587
 30
0.0
 40
0.7007568828987587
  0
CIRCLE
  5
1A8
330
187
100
AcDbEntity
  8
A
  6
SYMBOL_C
 62
     4
100
AcDbCircle
 10
98.10605716705325
 20
-0.7007568828987587
 30
0.0
 40
0.7007568828987587
  0
CIRCLE
  5
1A9
330
187
100
AcDbEntity
  8
A
  6
SYMBOL_C
 62
     4
100
AcDbCircle
 10
0.0
 20
-27.32954349409453
 30
0.0
 40
0.7007568828987587
  0
CIRCLE
  5
1AA
330
187
100
AcDbEntity
  8
A
  6
SYMBOL_C
 62
     4
100
AcDbCircle
 10
7.007575511932372
 20
-27.32954349409453
 30
0.0
 40
0.7007568828987587
  0
CIRCLE
  5
1AB
330
187
100
AcDbEntity
  8
A
  6
SYMBOL_C
 62
     4
100
AcDbCircle
 10
0.0
 20
-0.7007568828987587
 30
0.0
 40
0.7007568828987587
  0
CIRCLE
  5
1AC
330
187
100
AcDbEntity
  8
A
  6
SYMBOL_C
 62
     4
100
AcDbCircle
 10
7.007575511932372
 20
-0.7007568828987587
 30
0.0
 40
0.7007568828987587
  0
CIRCLE
  5
1AD
330
187
100
AcDbEntity
  8
A
  6
SYMBOL_C
 62
     4
100
AcDbCircle
 10
14.01515102386475
 20
-0.7007568828987587
 30
0.0
 40
0.7007568828987587
  0
LWPOLYLINE
  5
1AE
330
187
100
AcDbEntity
  8
A
  6
FIN
 62
     7
100
AcDbPolyline
 90
        5
 70
     0
 43
0.0
 10
-7.007575511932372
 20
0.0
 10
105.1136326789855
 20
0.0
 10
105.1136326789855
 20
-28.03030204772948
 10
-7.007575511932372
 20
-28.03030204772948
 10
-7.007575511932372
 20
0.0
  0
LINE
  5
1B5
330
187
100
AcDbEntity
  8
A
  6
MOYEN
 62
     4
100
AcDbLine
 10
0.0
 20
-9.460226272814225
 30
0.0
 11
5.25568163394928
 21
-9.460226272814225
 31
0.0
  0
LINE
  5
1B6
330
187
100
AcDbEntity
  8
A
  6
MOYEN
 62
     4
100
AcDbLine
 10
8.803269410042956
 20
-9.460226272814225
 30
0.0
 11
5.25568163394928
 21
-11.21212015079732
 31
0.0
  0
LINE
  5
1B7
330
187
100
AcDbEntity
  8
A
  6
MOYEN
 62
     4
100
AcDbLine
 10
8.759469389915466
 20
-9.460226272814225
 30
0.0
 11
14.01515102386475
 21
-9.460226272814225
 31
0.0
  0
LINE
  5
1B8
330
187
100
AcDbEntity
  8
A
  6
MOYEN
 62
     4
100
AcDbLine
 10
0.0
 20
-9.460224602078028
 30
0.0
 11
0.0
 21
-7.007575511932372
 31
0.0
  0
LINE
  5
1B9
330
187
100
AcDbEntity
  8
A
  6
MOYEN
 62
     4
100
AcDbLine
 10
14.01515102386475
 20
-9.460226272814225
 30
0.0
 11
14.01515102386475
 21
-7.007575511932372
 31
0.0
  0
LINE
  5
1BA
330
187
100
AcDbEntity
  8
A
  6
MOYEN
 62
     4
100
AcDbLine
 10
28.03030204772948
 20
-9.460226272814225
 30
0.0
 11
33.28598368167876
 21
-9.460226272814225
 31
0.0
  0
LINE
  5
1BB
330
187
100
AcDbEntity
  8
A
  6
MOYEN
 62
     4
100
AcDbLine
 10
56.06060409545897
 20
-9.460226272814225
 30
0.0
 11
61.31628572940826
 21
-9.460226272814225
 31
0.0
  0
LINE
  5
1BC
330
187
100
AcDbEntity
  8
A
  6
MOYEN
 62
     4
100
AcDbLine
 10
84.09090614318849
 20
-9.460226272814225
 30
0.0
 11
89.34658777713776
 21
-9.460226272814225
 31
0.0
  0
LINE
  5
1BD
330
187
100
AcDbEntity
  8
A
  6
MOYEN
 62
     4
100
AcDbLine
 10
36.83357145777245
 20
-9.460226272814225
 30
0.0
 11
33.28598368167876
 21
-11.21212015079732
 31
0.0
  0
LINE
  5
1BE
330
187
100
AcDbEntity
  8
A
  6
MOYEN
 62
     4
100
AcDbLine
 10
64.86387350550194
 20
-9.460226272814225
 30
0.0
 11
61.31628572940826
 21
-11.21212015079732
 31
0.0
  0
LINE
  5
1BF
330
187
100
AcDbEntity
  8
A
  6
MOYEN
 62
     4
100
AcDbLine
 10
92.89417555323144
 20
-9.460226272814225
 30
0.0
 11
89.34658777713776
 21
-11.21212015079732
 31
0.0
  0
LINE
  5
1C0
330
187
100
AcDbEntity
  8
A
  6
MOYEN
 62
     4
100
AcDbLine
 10
36.78977143764496
 20
-9.460226272814225
 30
0.0
 11
42.04545307159424
 21
-9.460226272814225
 31
0.0
  0
LINE
  5
1C1
330
187
100
AcDbEntity
  8
A
  6
MOYEN
 62
     4
100
AcDbLine
 10
64.82007348537445
 20
-9.460226272814225
 30
0.0
 11
70.07575511932373
 21
-9.460226272814225
 31
0.0
  0
LINE
  5
1C2
330
187
100
AcDbEntity
  8
A
  6
MOYEN
 62
     4
100
AcDbLine
 10
92.85037553310393
 20
-9.460226272814225
 30
0.0
 11
98.10605716705325
 21
-9.460226272814225
 31
0.0
  0
LINE
  5
1C3
330
187
100
AcDbEntity
  8
A
  6
MOYEN
 62
     4
100
AcDbLine
 10
28.03030204772948
 20
-9.460224602078028
 30
0.0
 11
28.03030204772948
 21
-7.007575511932372
 31
0.0
  0
LINE
  5
1C4
330
187
100
AcDbEntity
  8
A
  6
MOYEN
 62
     4
100
AcDbLine
 10
56.06060409545897
 20
-9.460224602078028
 30
0.0
 11
56.06060409545897
 21
-7.007575511932372
 31
0.0
  0
LINE
  5
1C5
330
187
100
AcDbEntity
  8
A
  6
MOYEN
 62
     4
100
AcDbLine
 10
84.09090614318849
 20
-9.460224602078028
 30
0.0
 11
84.09090614318849
 21
-7.007575511932372
 31
0.0
  0
LINE
  5
1C6
330
187
100
AcDbEntity
  8
A
  6
MOYEN
 62
     4
100
AcDbLine
 10
42.04545307159424
 20
-9.460226272814225
 30
0.0
 11
42.04545307159424
 21
-7.007575511932372
 31
0.0
  0
LINE
  5
1C7
330
187
100
AcDbEntity
  8
A
  6
MOYEN
 62
     4
100
AcDbLine
 10
70.07575511932373
 20
-9.460226272814225
 30
0.0
 11
70.07575511932373
 21
-7.007575511932372
 31
0.0
  0
LINE
  5
1C8
330
187
100
AcDbEntity
  8
A
  6
MOYEN
 62
     4
100
AcDbLine
 10
98.10605716705325
 20
-9.460226272814225
 30
0.0
 11
98.10605716705325
 21
-7.007575511932372
 31
0.0
  0
LINE
  5
1C9
330
187
100
AcDbEntity
  8
A
  6
FIN
 62
     7
100
AcDbLine
 10
0.0
 20
-21.02272653579712
 30
0.0
 11
21.02272653579712
 21
-21.02272653579712
 31
0.0
  0
CIRCLE
  5
1CA
330
187
100
AcDbEntity
  8
A
  6
SYMBOL_C
 62
     4
100
AcDbCircle
 10
14.01515102386475
 20
-27.32954349409453
 30
0.0
 40
0.7007568828987587
  0
CIRCLE
  5
1CB
330
187
100
AcDbEntity
  8
A
  6
SYMBOL_C
 62
     4
100
AcDbCircle
 10
21.02272653579712
 20
-27.32954349409453
 30
0.0
 40
0.7007568828987587
  0
TEXT
  5
1CC
330
187
100
AcDbEntity
  8
A
  6
FIN
 62
     1
100
AcDbText
 10
-0.5406966086642117
 20
-6.026141651253606
 30
0.0
 40
1.512885498915399
  1
L
 41
0.9200000000000001
  7
ARIAL
 72
     4
 11
0.0
 21
-5.269698901795906
 31
0.0
100
AcDbText
  0
TEXT
  5
1CD
330
187
100
AcDbEntity
  8
A
  6
FIN
 62
     1
100
AcDbText
 10
13.313052860149
 20
-6.026141651253606
 30
0.0
 40
1.512885498915399
  1
N
 41
0.9200000000000001
  7
ARIAL
 72
     4
 11
14.0151514415488
 21
-5.269698901795906
 31
0.0
100
AcDbText
  0
TEXT
  5
1CE
330
187
100
AcDbEntity
  8
A
  6
FIN
 62
     1
100
AcDbText
 10
6.466879320952211
 20
-6.026141651253606
 30
0.0
 40
1.512885498915399
  1
L
 41
0.9200000000000001
  7
ARIAL
 72
     4
 11
7.007575929616423
 21
-5.269698901795906
 31
0.0
100
AcDbText
  0
TEXT
  5
1CF
330
187
100
AcDbEntity
  8
A
  6
FIN
 62
     1
100
AcDbText
 10
5.710665695937787
 20
-23.54508147529465
 30
0.0
 40
1.512885498915399
  1
BK
 41
0.9200000000000001
  7
ARIAL
 72
     4
 11
7.007578018036668
 21
-22.78863872583694
 31
0.0
100
AcDbText
  0
TEXT
  5
1D0
330
187
100
AcDbEntity
  8
A
  6
FIN
 62
     1
100
AcDbText
 10
-1.404197162799594
 20
-23.54508147529465
 30
0.0
 40
1.512885498915399
  1
RD
 41
0.9200000000000001
  7
ARIAL
 72
     4
 11
0.0
 21
-22.78863872583694
 31
0.0
100
AcDbText
  0
TEXT
  5
1D1
330
187
100
AcDbEntity
  8
A
  6
FIN
 62
     1
100
AcDbText
 10
1.79196070547878
 20
-13.73447509029485
 30
0.0
 40
1.512885498915399
  1
CHANNEL A
 41
0.9200000000000001
  7
ARIAL
 72
     4
 11
7.3579552064339
 21
-12.97803234083716
 31
0.0
100
AcDbText
  0
TEXT
  5
1D2
330
187
100
AcDbEntity
  8
A
  6
FIN
 62
     1
100
AcDbText
 10
27.48960543906527
 20
-6.026141651253606
 30
0.0
 40
1.512885498915399
  1
L
 41
0.9200000000000001
  7
ARIAL
 72
     4
 11
28.03030204772948
 21
-5.269698901795906
 31
0.0
100
AcDbText
  0
TEXT
  5
1D3
330
187
100
AcDbEntity
  8
A
  6
FIN
 62
     1
100
AcDbText
 10
55.51990748679475
 20
-6.026141651253606
 30
0.0
 40
1.512885498915399
  1
L
 41
0.9200000000000001
  7
ARIAL
 72
     4
 11
56.06060409545897
 21
-5.269698901795906
 31
0.0
100
AcDbText
  0
TEXT
  5
1D4
330
187
100
AcDbEntity
  8
A
  6
FIN
 62
     1
100
AcDbText
 10
83.55020953452429
 20
-6.026141651253606
 30
0.0
 40
1.512885498915399
  1
L
 41
0.9200000000000001
  7
ARIAL
 72
     4
 11
84.09090614318849
 21
-5.269698901795906
 31
0.0
100
AcDbText
  0
TEXT
  5
1D5
330
187
100
AcDbEntity
  8
A
  6
FIN
 62
     1
100
AcDbText
 10
41.34335616093063
 20
-6.026141651253606
 30
0.0
 40
1.512885498915399
  1
N
 41
0.9200000000000001
  7
ARIAL
 72
     4
 11
42.04545474233043
 21
-5.269698901795906
 31
0.0
100
AcDbText
  0
TEXT
  5
1D6
330
187
100
AcDbEntity
  8
A
  6
FIN
 62
     1
100
AcDbText
 10
69.37365653792394
 20
-6.026141651253606
 30
0.0
 40
1.512885498915399
  1
N
 41
0.9200000000000001
  7
ARIAL
 72
     4
 11
70.07575511932373
 21
-5.269698901795906
 31
0.0
100
AcDbText
  0
TEXT
  5
1D7
330
187
100
AcDbEntity
  8
A
  6
FIN
 62
     1
100
AcDbText
 10
97.40395858565344
 20
-6.026141651253606
 30
0.0
 40
1.512885498915399
  1
N
 41
0.9200000000000001
  7
ARIAL
 72
     4
 11
98.10605716705325
 21
-5.269698901795906
 31
0.0
100
AcDbText
  0
TEXT
  5
1D8
330
187
100
AcDbEntity
  8
A
  6
FIN
 62
     1
100
AcDbText
 10
34.49718095099766
 20
-6.026141651253606
 30
0.0
 40
1.512885498915399
  1
L
 41
0.9200000000000001
  7
ARIAL
 72
     4
 11
35.03787755966187
 21
-5.269698901795906
 31
0.0
100
AcDbText
  0
TEXT
  5
1D9
330
187
100
AcDbEntity
  8
A
  6
FIN
 62
     1
100
AcDbText
 10
62.52748299872713
 20
-6.026141651253606
 30
0.0
 40
1.512885498915399
  1
L
 41
0.9200000000000001
  7
ARIAL
 72
     4
 11
63.06817960739135
 21
-5.269698901795906
 31
0.0
100
AcDbText
  0
TEXT
  5
1DA
330
187
100
AcDbEntity
  8
A
  6
FIN
 62
     1
100
AcDbText
 10
90.55778504645664
 20
-6.026141651253606
 30
0.0
 40
1.512885498915399
  1
L
 41
0.9200000000000001
  7
ARIAL
 72
     4
 11
91.09848165512085
 21
-5.269698901795906
 31
0.0
100
AcDbText
  0
TEXT
  5
1DB
330
187
100
AcDbEntity
  8
A
  6
FIN
 62
     1
100
AcDbText
 10
29.82368563520968
 20
-13.73447509029485
 30
0.0
 40
1.512885498915399
  1
CHANNEL B
 41
0.9200000000000001
  7
ARIAL
 72
     4
 11
35.38825600111125
 21
-12.97803234083716
 31
0.0
100
AcDbText
  0
TEXT
  5
1DC
330
187
100
AcDbEntity
  8
A
  6
FIN
 62
     1
100
AcDbText
 10
57.800346933325
 20
-13.73447509029485
 30
0.0
 40
1.512885498915399
  1
CHANNEL C
 41
0.9200000000000001
  7
ARIAL
 72
     4
 11
63.41855971957693
 21
-12.97803234083716
 31
0.0
100
AcDbText
  0
TEXT
  5
1DD
330
187
100
AcDbEntity
  8
A
  6
FIN
 62
     1
100
AcDbText
 10
85.83064898105451
 20
-13.73447509029485
 30
0.0
 40
1.512885498915399
  1
CHANNEL D
 41
0.9200000000000001
  7
ARIAL
 72
     4
 11
91.44886176730643
 21
-12.97803234083716
 31
0.0
100
AcDbText
  0
TEXT
  5
1DE
330
187
100
AcDbEntity
  8
A
  6
FIN
 62
     1
100
AcDbText
 10
19.72581839053871
 20
-23.54508147529465
 30
0.0
 40
1.512885498915399
  1
BK
 41
0.9200000000000001
  7
ARIAL
 72
     4
 11
21.0227307126376
 21
-22.78863872583694
 31
0.0
100
AcDbText
  0
TEXT
  5
1DF
330
187
100
AcDbEntity
  8
A
  6
FIN
 62
     1
100
AcDbText
 10
12.61095344338109
 20
-23.54508147529465
 30
0.0
 40
1.512885498915399
  1
RD
 41
0.9200000000000001
  7
ARIAL
 72
     4
 11
14.01515060618069
 21
-22.78863872583694
 31
0.0
100
AcDbText
  0
TEXT
  5
1E0
330
187
100
AcDbEntity
  8
A
  6
FIN
 62
     1
100
AcDbText
 10
6.566983881251559
 20
-20.02890993625413
 30
0.0
 40
1.512885498915399
  1
Bus KNX
 41
0.9200000000000001
  7
ARIAL
 72
     4
 11
10.51136326789856
 21
-19.28485096987077
 31
0.0
100
AcDbText
  0
ENDBLK
  5
1E2
330
187
100
AcDbEntity
  8
0
100
AcDbBlockEnd
  0
BLOCK
  5
23F
330
1F9
100
AcDbEntity
  8
0
100
AcDbBlockBegin
  2
X12C0_X01_0_3_1
 70
     2
 10
0.0
 20
0.0
 30
0.0
  3
X12C0_X01_0_3_1
  1

  0
ATTDEF
  5
1FA
330
1F9
100
AcDbEntity
  8
A
  6
FIN
 62
     3
100
AcDbText
 10
1.401515123270677
 20
1.521644926536909
 30
0.0
 40
1.86201292174203
  1

 41
0.9200000000000001
  7
ARIAL
 11
1.401515123270677
 21
2.452651387407924
 31
0.0
100
AcDbAttributeDefinition
  3

  2
$BORNE
 70
     0
 74
     2
  0
ATTDEF
  5
1FB
330
1F9
100
AcDbEntity
  8
A
  6
FIN
 62
     3
100
AcDbText
 10
-1.401515123270677
 20
1.521644926536909
 30
0.0
 40
1.86201292174203
  1

 41
0.9200000000000001
  7
ARIAL
 72
     2
 11
-1.401515123270677
 21
2.452651387407924
 31
0.0
100
AcDbAttributeDefinition
  3

  2
$NOMCOMP
 70
     0
 74
     2
  0
ATTDEF
  5
1FC
330
1F9
100
AcDbEntity
  8
A
  6
FIN
 62
     1
100
AcDbText
 10
1.401515123270677
 20
-2.566524531245231
 30
0.0
 40
1.629261306524275
  1

 41
0.9200000000000001
  7
ARIAL
 11
1.401515123270677
 21
-1.751893877983093
 31
0.0
100
AcDbAttributeDefinition
  3

  2
$CABABOU
 70
     0
 74
     2
  0
ATTDEF
  5
1FD
330
1F9
100
AcDbEntity
  8
A
  6
FIN
 62
     1
100
AcDbText
 10
1.401515123270677
 20
-4.843986489086443
 30
0.0
 40
1.629261306524275
  1

 41
0.9200000000000001
  7
ARIAL
 11
1.401515123270677
 21
-4.029355835824305
 31
0.0
100
AcDbAttributeDefinition
  3

  2
$BRIN_ABOUTISSANT
 70
     0
 74
     2
  0
ATTDEF
  5
1FE
330
1F9
100
AcDbEntity
  8
A
  6
FIN
 62
     1
100
AcDbText
 10
1.401515123270677
 20
-7.121448864611704
 30
0.0
 40
1.629261306524275
  1

 41
0.9200000000000001
  7
ARIAL
 11
1.401515123270677
 21
-6.306818211349566
 31
0.0
100
AcDbAttributeDefinition
  3

  2
$CODCABA
 70
     0
 74
     2
  0
ATTDEF
  5
1FF
330
1F9
100
AcDbEntity
  8
A
  6
FIN
 62
     3
100
AcDbText
 10
-1.401515123270677
 20
4.441050980687142
 30
0.0
 40
1.629261306524275
  1

 41
0.9200000000000001
  7
ARIAL
 72
     2
 11
-1.401515123270677
 21
5.25568163394928
 31
0.0
100
AcDbAttributeDefinition
  3

  2
$LOCALISATION
 70
     0
 74
     2
  0
ATTDEF
  5
200
330
1F9
100
AcDbEntity
  8
A
  6
FIN
 62
     3
100
AcDbText
 10
-1.401515123270677
 20
6.893702576937092
 30
0.0
 40
1.629261306524275
  1

 41
0.9200000000000001
  7
ARIAL
 72
     2
 11
-1.401515123270677
 21
7.70833323019923
 31
0.0
100
AcDbAttributeDefinition
  3

  2
$FONCTION
 70
     0
 74
     2
  0
LINE
  5
201
330
1F9
100
AcDbEntity
  8
A
  6
MOYEN
 62
     4
100
AcDbLine
 10
0.0
 20
3.503787755966186
 30
0.0
 11
0.0
 21
1.051136368558259
 31
0.0
  0
LINE
  5
202
330
1F9
100
AcDbEntity
  8
A
  6
MOYEN
 62
     4
100
AcDbLine
 10
0.0
 20
-1.051136368558259
 30
0.0
 11
0.0
 21
-3.503787755966186
 31
0.0
  0
CIRCLE
  5
203
330
1F9
100
AcDbEntity
  8
A
  6
MOYEN
 62
     4
100
AcDbCircle
 10
0.0
 20
0.0
 30
0.0
 40
1.051136368558259
  0
LINE
  5
204
330
1F9
100
AcDbEntity
  8
A
  6
MOYEN
 62
     4
100
AcDbLine
 10
-0.2700768034267895
 20
-1.015442864877208
 30
0.0
 11
0.2700759680586913
 21
-1.015442864877208
 31
0.0
  0
LINE
  5
205
330
1F9
100
AcDbEntity
  8
A
  6
MOYEN
 62
     4
100
AcDbLine
 10
0.3775593353672306
 20
-0.9804049163112578
 30
0.0
 11
-0.3775601446300758
 21
-0.9804049163112578
 31
0.0
  0
LINE
  5
206
330
1F9
100
AcDbEntity
  8
A
  6
MOYEN
 62
     4
100
AcDbLine
 10
-0.4600779881120722
 20
-0.9453670721663199
 30
0.0
 11
0.4600772571649864
 21
-0.9453670721663199
 31
0.0
  0
LINE
  5
207
330
1F9
100
AcDbEntity
  8
A
  6
MOYEN
 62
     4
100
AcDbLine
 10
0.5259788199099269
 20
-0.9103292280213819
 30
0.0
 11
-0.5259794986465069
 21
-0.9103292280213819
 31
0.0
  0
LINE
  5
208
330
1F9
100
AcDbEntity
  8
A
  6
MOYEN
 62
     4
100
AcDbLine
 10
-0.5812765854892135
 20
-0.875291331665938
 30
0.0
 11
0.5812758545421275
 21
-0.875291331665938
 31
0.0
  0
LINE
  5
209
330
1F9
100
AcDbEntity
  8
A
  6
MOYEN
 62
     4
100
AcDbLine
 10
0.6305241454064117
 20
-0.840253435310494
 30
0.0
 11
-0.6305249285640038
 21
-0.840253435310494
 31
0.0
  0
LINE
  5
20A
330
1F9
100
AcDbEntity
  8
A
  6
MOYEN
 62
     4
100
AcDbLine
 10
-0.6746988281259691
 20
-0.8052155911655558
 30
0.0
 11
0.674698097178883
 21
-0.8052155911655558
 31
0.0
  0
LINE
  5
20B
330
1F9
100
AcDbEntity
  8
A
  6
MOYEN
 62
     4
100
AcDbLine
 10
0.7149967763435683
 20
-0.7701776948101121
 30
0.0
 11
-0.7149975595011604
 21
-0.7701776948101121
 31
0.0
  0
LINE
  5
20C
330
1F9
100
AcDbEntity
  8
A
  6
MOYEN
 62
     4
100
AcDbLine
 10
-0.7506593714049857
 20
-0.735139798454668
 30
0.0
 11
0.7506585882473935
 21
-0.735139798454668
 31
0.0
  0
LINE
  5
20D
330
1F9
100
AcDbEntity
  8
A
  6
MOYEN
 62
     4
100
AcDbLine
 10
0.7832007701988069
 20
-0.7001019543097299
 30
0.0
 11
-0.7832016055669051
 21
-0.7001019543097299
 31
0.0
  0
LINE
  5
20E
330
1F9
100
AcDbEntity
  8
A
  6
MOYEN
 62
     4
100
AcDbLine
 10
-0.8138418632006255
 20
-0.665064057954286
 30
0.0
 11
0.8138410278325274
 21
-0.665064057954286
 31
0.0
  0
LINE
  5
20F
330
1F9
100
AcDbEntity
  8
A
  6
MOYEN
 62
     4
100
AcDbLine
 10
0.8406447530540184
 20
-0.630026161598842
 30
0.0
 11
-0.8406455884221164
 21
-0.630026161598842
 31
0.0
  0
LINE
  5
210
330
1F9
100
AcDbEntity
  8
A
  6
MOYEN
 62
     4
100
AcDbLine
 10
-0.8659802666323273
 20
-0.5949883174539039
 30
0.0
 11
0.8659794312642288
 21
-0.5949883174539039
 31
0.0
  0
LINE
  5
211
330
1F9
100
AcDbEntity
  8
A
  6
MOYEN
 62
     4
100
AcDbLine
 10
0.8890571015044841
 20
-0.55995042109846
 30
0.0
 11
-0.8890578324515701
 21
-0.55995042109846
 31
0.0
  0
LINE
  5
212
330
1F9
100
AcDbEntity
  8
A
  6
MOYEN
 62
     4
100
AcDbLine
 10
-0.9100109527759483
 20
-0.5249125769535219
 30
0.0
 11
0.9100101174078504
 21
-0.5249125769535219
 31
0.0
  0
LINE
  5
213
330
1F9
100
AcDbEntity
  8
A
  6
MOYEN
 62
     4
100
AcDbLine
 10
0.9296932693808628
 20
-0.4898746805980779
 30
0.0
 11
-0.9296941047489612
 21
-0.4898746805980779
 31
0.0
  0
LINE
  5
214
330
1F9
100
AcDbEntity
  8
A
  6
MOYEN
 62
     4
100
AcDbLine
 10
-0.9469325519824424
 20
-0.4548367842426337
 30
0.0
 11
0.9469318210353565
 21
-0.4548367842426337
 31
0.0
  0
LINE
  5
215
330
1F9
100
AcDbEntity
  8
A
  6
MOYEN
 62
     4
100
AcDbLine
 10
0.9634798365356331
 20
-0.4197989400976958
 30
0.0
 11
-0.9634805674827191
 21
-0.4197989400976958
 31
0.0
  0
LINE
  5
216
330
1F9
100
AcDbEntity
  8
A
  6
MOYEN
 62
     4
100
AcDbLine
 10
-0.9774918833316448
 20
-0.3847610437422517
 30
0.0
 11
0.9774911523845586
 21
-0.3847610437422517
 31
0.0
  0
LINE
  5
217
330
1F9
100
AcDbEntity
  8
A
  6
MOYEN
 62
     4
100
AcDbLine
 10
0.9911067125969379
 20
-0.3497231734920607
 30
0.0
 11
-0.9911075479650364
 21
-0.3497231734920607
 31
0.0
  0
LINE
  5
218
330
1F9
100
AcDbEntity
  8
A
  6
MOYEN
 62
     4
100
AcDbLine
 10
-1.002249061133432
 20
-0.3146853032418697
 30
0.0
 11
1.002248225765334
 21
-0.3146853032418697
 31
0.0
  0
LINE
  5
219
330
1F9
100
AcDbEntity
  8
A
  6
MOYEN
 62
     4
100
AcDbLine
 10
1.013088275471276
 20
-0.2796474068864256
 30
0.0
 11
-1.013089006418362
 21
-0.2796474068864256
 31
0.0
  0
LINE
  5
21A
330
1F9
100
AcDbEntity
  8
A
  6
MOYEN
 62
     4
100
AcDbLine
 10
-1.021621769436932
 20
-0.2446095366362346
 30
0.0
 11
1.021620934068834
 21
-0.2446095366362346
 31
0.0
  0
LINE
  5
21B
330
1F9
100
AcDbEntity
  8
A
  6
MOYEN
 62
     4
100
AcDbLine
 10
1.029804095538287
 20
-0.2095716663860436
 30
0.0
 11
-1.029805035327399
 21
-0.2095716663860436
 31
0.0
  0
LINE
  5
21C
330
1F9
100
AcDbEntity
  8
A
  6
MOYEN
 62
     4
100
AcDbLine
 10
-1.035915335282054
 20
-0.1745337961358526
 30
0.0
 11
1.035914395492945
 21
-0.1745337961358526
 31
0.0
  0
LINE
  5
21D
330
1F9
100
AcDbEntity
  8
A
  6
MOYEN
 62
     4
100
AcDbLine
 10
1.041527233745093
 20
-0.1394959128330351
 30
0.0
 11
-1.041528173534204
 21
-0.1394959128330351
 31
0.0
  0
LINE
  5
21E
330
1F9
100
AcDbEntity
  8
A
  6
MOYEN
 62
     4
100
AcDbLine
 10
-1.045342673112841
 20
-0.1044580360565308
 30
0.0
 11
1.045341837744742
 21
-0.1044580360565308
 31
0.0
  0
LINE
  5
21F
330
1F9
100
AcDbEntity
  8
A
  6
MOYEN
 62
     4
100
AcDbLine
 10
1.048441888757353
 20
-0.0694201592800265
 30
0.0
 11
-1.048442724125451
 21
-0.0694201592800265
 31
0.0
  0
LINE
  5
220
330
1F9
100
AcDbEntity
  8
A
  6
MOYEN
 62
     4
100
AcDbLine
 10
-1.050037963930072
 20
-0.0343822825035223
 30
0.0
 11
1.050037024140962
 21
-0.0343822825035223
 31
0.0
  0
LINE
  5
221
330
1F9
100
AcDbEntity
  8
A
  6
MOYEN
 62
     4
100
AcDbLine
 10
1.050655405375692
 20
0.000655594272982
 30
0.0
 11
-1.050656449585814
 21
0.000655594272982
 31
0.0
  0
LINE
  5
222
330
1F9
100
AcDbEntity
  8
A
  6
MOYEN
 62
     4
100
AcDbLine
 10
-1.050063755920107
 20
0.0356934710494863
 30
0.0
 11
1.050062711709982
 21
0.0356934710494863
 31
0.0
  0
LINE
  5
223
330
1F9
100
AcDbEntity
  8
A
  6
MOYEN
 62
     4
100
AcDbLine
 10
1.048205792848583
 20
0.0707313478259906
 30
0.0
 11
-1.048206837058705
 21
0.0707313478259906
 31
0.0
  0
LINE
  5
224
330
1F9
100
AcDbEntity
  8
A
  6
MOYEN
 62
     4
100
AcDbLine
 10
-1.045415350137389
 20
0.1057692246024948
 30
0.0
 11
1.045414201506252
 21
0.1057692246024948
 31
0.0
  0
LINE
  5
225
330
1F9
100
AcDbEntity
  8
A
  6
MOYEN
 62
     4
100
AcDbLine
 10
1.041063291187527
 20
0.1408071013789991
 30
0.0
 11
-1.04106443981866
 21
0.1408071013789991
 31
0.0
  0
LINE
  5
226
330
1F9
100
AcDbEntity
  8
A
  6
MOYEN
 62
     4
100
AcDbLine
 10
-1.03601954745231
 20
0.1758449846818166
 30
0.0
 11
1.036018398821177
 21
0.1758449846818166
 31
0.0
  0
LINE
  5
227
330
1F9
100
AcDbEntity
  8
A
  6
MOYEN
 62
     4
100
AcDbLine
 10
1.029129326956927
 20
0.2108828549320077
 30
0.0
 11
-1.02913047558806
 21
0.2108828549320077
 31
0.0
  0
LINE
  5
228
330
1F9
100
AcDbEntity
  8
A
  6
MOYEN
 62
     4
100
AcDbLine
 10
-1.021730576131731
 20
0.2459207251821987
 30
0.0
 11
1.021729427500595
 21
0.2459207251821987
 31
0.0
  0
LINE
  5
229
330
1F9
100
AcDbEntity
  8
A
  6
MOYEN
 62
     4
100
AcDbLine
 10
1.012230456855382
 20
0.2809586215376427
 30
0.0
 11
-1.01223170990753
 21
0.2809586215376427
 31
0.0
  0
LINE
  5
22A
330
1F9
100
AcDbEntity
  8
A
  6
MOYEN
 62
     4
100
AcDbLine
 10
-1.002320589526844
 20
0.3159964917878337
 30
0.0
 11
1.002319336474699
 21
0.3159964917878337
 31
0.0
  0
LINE
  5
22B
330
1F9
100
AcDbEntity
  8
A
  6
MOYEN
 62
     4
100
AcDbLine
 10
0.9901086565615527
 20
0.3510343620380247
 30
0.0
 11
-0.9901099096137004
 21
0.3510343620380247
 31
0.0
  0
LINE
  5
22C
330
1F9
100
AcDbEntity
  8
A
  6
MOYEN
 62
     4
100
AcDbLine
 10
-0.9774649427104762
 20
0.3860722322882157
 30
0.0
 11
0.9774635852373164
 21
0.3860722322882157
 31
0.0
  0
LINE
  5
22D
330
1F9
100
AcDbEntity
  8
A
  6
MOYEN
 62
     4
100
AcDbLine
 10
0.9624039868460984
 20
0.421110102538407
 30
0.0
 11
-0.9624054487402702
 21
0.421110102538407
 31
0.0
  0
LINE
  5
22E
330
1F9
100
AcDbEntity
  8
A
  6
MOYEN
 62
     4
100
AcDbLine
 10
-0.9467191154333391
 20
0.456147998893851
 30
0.0
 11
0.946717653539167
 21
0.456147998893851
 31
0.0
  0
LINE
  5
22F
330
1F9
100
AcDbEntity
  8
A
  6
MOYEN
 62
     4
100
AcDbLine
 10
0.9286306811598874
 20
0.4911858952492949
 30
0.0
 11
-0.9286321430540596
 21
0.4911858952492949
 31
0.0
  0
LINE
  5
230
330
1F9
100
AcDbEntity
  8
A
  6
MOYEN
 62
     4
100
AcDbLine
 10
-0.909485192979112
 20
0.526223739394233
 30
0.0
 11
0.9094836266639275
 21
0.526223739394233
 31
0.0
  0
LINE
  5
231
330
1F9
100
AcDbEntity
  8
A
  6
MOYEN
 62
     4
100
AcDbLine
 10
0.8881398673326046
 20
0.561261635749677
 30
0.0
 11
-0.8881413292267763
 21
0.561261635749677
 31
0.0
  0
LINE
  5
232
330
1F9
100
AcDbEntity
  8
A
  6
MOYEN
 62
     4
100
AcDbLine
 10
-0.8649619007100531
 20
0.5962994798946149
 30
0.0
 11
0.8649602821843629
 21
0.5962994798946149
 31
0.0
  0
LINE
  5
233
330
1F9
100
AcDbEntity
  8
A
  6
MOYEN
 62
     4
100
AcDbLine
 10
0.8400663650669921
 20
0.631337376250059
 30
0.0
 11
-0.8400679835926823
 21
0.631337376250059
 31
0.0
  0
LINE
  5
234
330
1F9
100
AcDbEntity
  8
A
  6
MOYEN
 62
     4
100
AcDbLine
 10
-0.8120693165171495
 20
0.6663752726055029
 30
0.0
 11
0.8120674891494346
 21
0.6663752726055029
 31
0.0
  0
LINE
  5
235
330
1F9
100
AcDbEntity
  8
A
  6
MOYEN
 62
     4
100
AcDbLine
 10
0.7825617136036449
 20
0.7014131167504411
 30
0.0
 11
-0.7825637498133844
 21
0.7014131167504411
 31
0.0
  0
LINE
  5
236
330
1F9
100
AcDbEntity
  8
A
  6
MOYEN
 62
     4
100
AcDbLine
 10
-0.7493336944435676
 20
0.736451013105885
 30
0.0
 11
0.7493316060233221
 21
0.736451013105885
 31
0.0
  0
LINE
  5
237
330
1F9
100
AcDbEntity
  8
A
  6
MOYEN
 62
     4
100
AcDbLine
 10
0.7129779527026267
 20
0.771488857250823
 30
0.0
 11
-0.7129802499648969
 21
0.771488857250823
 31
0.0
  0
LINE
  5
238
330
1F9
100
AcDbEntity
  8
A
  6
MOYEN
 62
     4
100
AcDbLine
 10
-0.6735903990806023
 20
0.8065267536062671
 30
0.0
 11
0.6735877885552953
 21
0.8065267536062671
 31
0.0
  0
LINE
  5
239
330
1F9
100
AcDbEntity
  8
A
  6
MOYEN
 62
     4
100
AcDbLine
 10
0.6294237045684845
 20
0.8415646499617109
 30
0.0
 11
-0.6294263150937917
 21
0.8415646499617109
 31
0.0
  0
LINE
  5
23A
330
1F9
100
AcDbEntity
  8
A
  6
MOYEN
 62
     4
100
AcDbLine
 10
-0.5791126166412007
 20
0.876602494106649
 30
0.0
 11
0.5791096928528569
 21
0.876602494106649
 31
0.0
  0
LINE
  5
23B
330
1F9
100
AcDbEntity
  8
A
  6
MOYEN
 62
     4
100
AcDbLine
 10
0.5220324365927774
 20
0.9116403382515867
 30
0.0
 11
-0.522035673644158
 21
0.9116403382515867
 31
0.0
  0
LINE
  5
23C
330
1F9
100
AcDbEntity
  8
A
  6
MOYEN
 62
     4
100
AcDbLine
 10
-0.455447751585492
 20
0.9466782868175371
 30
0.0
 11
0.4554439402185437
 21
0.9466782868175371
 31
0.0
  0
LINE
  5
23D
330
1F9
100
AcDbEntity
  8
A
  6
MOYEN
 62
     4
100
AcDbLine
 10
0.3746494350179859
 20
0.9817161309624752
 30
0.0
 11
-0.3746541600687916
 21
0.9817161309624752
 31
0.0
  0
LINE
  5
23E
330
1F9
100
AcDbEntity
  8
A
  6
MOYEN
 62
     4
100
AcDbLine
 10
-0.2641558448726524
 20
1.016753975107411
 30
0.0
 11
0.2641483787702743
 21
1.016753975107411
 31
0.0
  0
ENDBLK
  5
240
330
1F9
100
AcDbEntity
  8
0
100
AcDbBlockEnd
  0
BLOCK
  5
25B
330
249
100
AcDbEntity
  8
0
100
AcDbBlockBegin
  2
H10C0N_H01_0_3_1
 70
     2
 10
0.0
 20
0.0
 30
0.0
  3
H10C0N_H01_0_3_1
  1

  0
ATTDEF
  5
24A
330
249
100
AcDbEntity
  8
A
  6
FIN
 62
     3
100
AcDbText
 10
-3.503787755966186
 20
-4.200791374154674
 30
0.0
 40
2.094764536959782
  1

 41
0.9200000000000001
  7
ARIAL
 72
     2
 11
-3.503787755966186
 21
-3.153409105674783
 31
0.0
100
AcDbAttributeDefinition
  3

  2
$NOMCOMP
 70
     0
 74
     2
  0
ATTDEF
  5
24B
330
249
100
AcDbEntity
  8
A
  6
FIN
 62
     3
100
AcDbText
 10
-3.503787755966186
 20
1.696834356103625
 30
0.0
 40
1.86201292174203
  1

 41
0.9200000000000001
  7
ARIAL
 72
     2
 11
-3.503787755966186
 21
2.62784081697464
 31
0.0
100
AcDbAttributeDefinition
  3

  2
$FONCTION
 70
     0
 74
     2
  0
ATTDEF
  5
24C
330
249
100
AcDbEntity
  8
A
  6
FIN
 62
     1
100
AcDbText
 10
-5.25568163394928
 20
-9.574100043177605
 30
0.0
 40
1.629261306524275
  1

 41
0.9200000000000001
  7
ARIAL
 72
     2
 11
-5.25568163394928
 21
-8.759469389915466
 31
0.0
100
AcDbAttributeDefinition
  3

  2
UE
 70
     0
 74
     2
  0
ATTDEF
  5
24D
330
249
100
AcDbEntity
  8
A
  6
FIN
 62
     1
100
AcDbText
 10
0.8759469389915466
 20
-0.2308745651785691
 30
0.0
 40
1.512885498915399
  1

 41
0.9200000000000001
  7
ARIAL
 11
0.8759469389915466
 21
0.5255681842791306
 31
0.0
100
AcDbAttributeDefinition
  3

  2
$PL:1
 70
     0
 74
     2
  0
ATTDEF
  5
24E
330
249
100
AcDbEntity
  8
A
  6
FIN
 62
     1
100
AcDbText
 10
0.8759469389915466
 20
-8.114397538207549
 30
0.0
 40
1.512885498915399
  1

 41
0.9200000000000001
  7
ARIAL
 11
0.8759469389915466
 21
-7.357954788749849
 31
0.0
100
AcDbAttributeDefinition
  3

  2
$PL:2
 70
     0
 74
     2
  0
ATTDEF
  5
24F
330
249
100
AcDbEntity
  8
A
  6
FIN
 62
     3
100
AcDbText
 10
-3.503787755966186
 20
-0.9310064608710149
 30
0.0
 40
1.86201292174203
  1

 41
0.9200000000000001
  7
ARIAL
 72
     2
 11
-3.503787755966186
 21
0.0
 31
0.0
100
AcDbAttributeDefinition
  3

  2
$LOCALISATION
 70
     0
 74
     2
  0
ATTDEF
  5
250
330
249
100
AcDbEntity
  8
A
  6
FIN
 62
     4
100
AcDbText
 10
-3.503787755966186
 20
-9.574100043177605
 30
0.0
 40
1.629261306524275
  1

 41
0.9200000000000001
  7
ARIAL
 72
     2
 11
-3.503787755966186
 21
-8.759469389915466
 31
0.0
100
AcDbAttributeDefinition
  3

  2
UNITE_UE
 70
     0
 74
     2
  0
ATTDEF
  5
251
330
249
100
AcDbEntity
  8
A
  6
FIN
 62
     1
100
AcDbText
 10
-3.503787755966186
 20
-6.946259226202964
 30
0.0
 40
1.629261306524275
  1

 41
0.9200000000000001
  7
ARIAL
 72
     2
 11
-3.503787755966186
 21
-6.131628572940826
 31
0.0
100
AcDbAttributeDefinition
  3

  2
COULEUR
 70
     0
 74
     2
  0
ATTDEF
  5
252
330
249
100
AcDbEntity
  8
A
  6
FIN
 62
     4
100
AcDbText
 10
-3.503787755966186
 20
-12.20194086015223
 30
0.0
 40
1.629261306524275
  1

 41
0.9200000000000001
  7
ARIAL
 72
     2
 11
-3.503787755966186
 21
-11.38731020689009
 31
0.0
100
AcDbAttributeDefinition
  3

  2
TYPE
 70
     0
 74
     2
  0
ATTDEF
  5
253
330
249
100
AcDbEntity
  8
A
  6
FIN
 62
     4
100
AcDbText
 10
3.503787755966186
 20
-4.143228979661609
 30
0.0
 40
1.629261306524275
  1

 41
0.9200000000000001
  7
ARIAL
 11
3.503787755966186
 21
-3.32859832639947
 31
0.0
100
AcDbAttributeDefinition
  3

  2
TEXTE_ETIQUETTE
 70
     0
 74
     2
  0
ATTDEF
  5
254
330
249
100
AcDbEntity
  8
A
  6
FIN
 62
     1
100
AcDbText
 10
-6.657202082691582
 20
-12.90268771863382
 30
0.0
 40
1.629261306524275
  1

 41
0.9200000000000001
  7
ARIAL
 72
     2
 11
-6.657202082691582
 21
-12.08805706537169
 31
0.0
100
AcDbAttributeDefinition
  3

  2
$POS_REFCRO_1
 70
     0
 74
     2
  0
ATTDEF
  5
255
330
249
100
AcDbEntity
  8
A
  6
FIN
 62
     4
100
AcDbText
 10
-7.357948941173162
 20
-14.54069780183635
 30
0.0
 40
1.629261306524275
  1

 41
0.9200000000000001
  7
ARIAL
 72
     4
 11
-7.357948941173162
 21
-14.54069780183635
 31
0.0
100
AcDbAttributeDefinition
  3

  2
$INTER_CROREF_1
 70
     0
 74
     2
  0
LINE
  5
256
330
249
100
AcDbEntity
  8
A
  6
SYMBOL_C
 62
     4
100
AcDbLine
 10
-1.716855929417143
 20
-1.751893877983093
 30
0.0
 11
1.681818085272205
 21
-5.290719478094216
 31
0.0
  0
LINE
  5
257
330
249
100
AcDbEntity
  8
A
  6
MOYEN
 62
     4
100
AcDbLine
 10
0.0
 20
0.0
 30
0.0
 11
0.0
 21
-1.051136159716236
 31
0.0
  0
LINE
  5
258
330
249
100
AcDbEntity
  8
A
  6
MOYEN
 62
     4
100
AcDbLine
 10
0.0
 20
-5.956439352216137
 30
0.0
 11
0.0
 21
-7.007575511932372
 31
0.0
  0
CIRCLE
  5
259
330
249
100
AcDbEntity
  8
A
  6
SYMBOL_C
 62
     4
100
AcDbCircle
 10
0.0
 20
-3.503787755966186
 30
0.0
 40
2.45265159624995
  0
LINE
  5
25A
330
249
100
AcDbEntity
  8
A
  6
SYMBOL_C
 62
     4
100
AcDbLine
 10
1.716855929417143
 20
-1.751893877983093
 30
0.0
 11
-1.681818085272205
 21
-5.290719478094216
 31
0.0
  0
ENDBLK
  5
25C
330
249
100
AcDbEntity
  8
0
100
AcDbBlockEnd
  0
BLOCK
  5
27E
330
269
100
AcDbEntity
  8
0
100
AcDbBlockBegin
  2
M01P1N_M01_0_3_1
 70
     2
 10
0.0
 20
0.0
 30
0.0
  3
M01P1N_M01_0_3_1
  1

  0
ATTDEF
  5
26A
330
269
100
AcDbEntity
  8
A
  6
FIN
 62
     3
100
AcDbText
 10
-5.25568163394928
 20
-4.200791374154674
 30
0.0
 40
2.094764536959782
  1

 41
0.9200000000000001
  7
ARIAL
 72
     2
 11
-5.25568163394928
 21
-3.153409105674783
 31
0.0
100
AcDbAttributeDefinition
  3

  2
$REPETIQ
 70
     0
 74
     2
  0
ATTDEF
  5
26B
330
269
100
AcDbEntity
  8
A
  6
FIN
 62
     3
100
AcDbText
 10
-5.25568163394928
 20
-0.9310064608710149
 30
0.0
 40
1.86201292174203
  1

 41
0.9200000000000001
  7
ARIAL
 72
     2
 11
-5.25568163394928
 21
0.0
 31
0.0
100
AcDbAttributeDefinition
  3

  2
$LOCATION
 70
     0
 74
     2
  0
ATTDEF
  5
26C
330
269
100
AcDbEntity
  8
A
  6
FIN
 62
     3
100
AcDbText
 10
-5.25568163394928
 20
2.222402644803767
 30
0.0
 40
1.86201292174203
  1

 41
0.9200000000000001
  7
ARIAL
 72
     2
 11
-5.25568163394928
 21
3.153409105674783
 31
0.0
100
AcDbAttributeDefinition
  3

  2
$FUNCTION
 70
     0
 74
     2
  0
ATTDEF
  5
26D
330
269
100
AcDbEntity
  8
A
  6
FIN
 62
     4
100
AcDbText
 10
-5.25568163394928
 20
-9.574100043177605
 30
0.0
 40
1.629261306524275
  1

 41
0.9200000000000001
  7
ARIAL
 72
     2
 11
-5.25568163394928
 21
-8.759469389915466
 31
0.0
100
AcDbAttributeDefinition
  3

  2
IN
 70
     0
 74
     2
  0
ATTDEF
  5
26E
330
269
100
AcDbEntity
  8
A
  6
FIN
 62
     4
100
AcDbText
 10
-5.25568163394928
 20
-14.82978167712689
 30
0.0
 40
1.629261306524275
  1

 41
0.9200000000000001
  7
ARIAL
 72
     2
 11
-5.25568163394928
 21
-14.01515102386475
 31
0.0
100
AcDbAttributeDefinition
  3

  2
MOTOR TYPE
 70
     0
 74
     2
  0
ATTDEF
  5
26F
330
269
100
AcDbEntity
  8
A
  6
FIN
 62
     4
100
AcDbText
 10
-5.25568163394928
 20
-6.946259226202964
 30
0.0
 40
1.629261306524275
  1

 41
0.9200000000000001
  7
ARIAL
 72
     2
 11
-5.25568163394928
 21
-6.131628572940826
 31
0.0
100
AcDbAttributeDefinition
  3

  2
POWER
 70
     0
 74
     2
  0
ATTDEF
  5
270
330
269
100
AcDbEntity
  8
A
  6
FIN
 62
     4
100
AcDbText
 10
-5.25568163394928
 20
-12.20194086015223
 30
0.0
 40
1.629261306524275
  1

 41
0.9200000000000001
  7
ARIAL
 72
     2
 11
-5.25568163394928
 21
-11.38731020689009
 31
0.0
100
AcDbAttributeDefinition
  3

  2
SPEED
 70
     0
 74
     2
  0
ATTDEF
  5
271
330
269
100
AcDbEntity
  8
A
  6
FIN
 62
     1
100
AcDbText
 10
0.8759469389915466
 20
0.2946936191005603
 30
0.0
 40
1.512885498915399
  1

 41
0.9200000000000001
  7
ARIAL
 11
0.8759469389915466
 21
1.051136368558259
 31
0.0
100
AcDbAttributeDefinition
  3

  2
$CP:1
 70
     0
 74
     2
  0
ATTDEF
  5
272
330
269
100
AcDbEntity
  8
A
  6
FIN
 62
     1
100
AcDbText
 10
7.883522450923918
 20
0.2946936191005603
 30
0.0
 40
1.512885498915399
  1

 41
0.9200000000000001
  7
ARIAL
 11
7.883522450923918
 21
1.051136368558259
 31
0.0
100
AcDbAttributeDefinition
  3

  2
$CP:2
 70
     0
 74
     2
  0
ATTDEF
  5
273
330
269
100
AcDbEntity
  8
A
  6
FIN
 62
     4
100
AcDbText
 10
3.503787755966186
 20
-22.77462041378021
 30
0.0
 40
1.86201292174203
  1

 41
0.69
  7
ARIAL
 72
     4
 11
3.503787755966186
 21
-22.77462041378021
 31
0.0
100
AcDbAttributeDefinition
  3

  2
COMMENT1
 70
     0
 74
     2
  0
ATTDEF
  5
274
330
269
100
AcDbEntity
  8
A
  6
FIN
 62
     4
100
AcDbText
 10
3.503787755966186
 20
-25.22727117466206
 30
0.0
 40
1.86201292174203
  1

 41
0.69
  7
ARIAL
 72
     4
 11
3.503787755966186
 21
-25.22727117466206
 31
0.0
100
AcDbAttributeDefinition
  3

  2
COMMENT2
 70
     0
 74
     2
  0
ATTDEF
  5
275
330
269
100
AcDbEntity
  8
A
  6
FIN
 62
     1
100
AcDbText
 10
-5.956439352216137
 20
-18.33356943309306
 30
0.0
 40
1.629261306524275
  1

 41
0.9200000000000001
  7
ARIAL
 72
     2
 11
-5.956439352216137
 21
-17.51893877983093
 31
0.0
100
AcDbAttributeDefinition
  3

  2
$POS_CROREF_1
 70
     0
 74
     2
  0
CIRCLE
  5
276
330
269
100
AcDbEntity
  8
A
  6
SYMBOL_P
 62
     3
100
AcDbCircle
 10
3.503787755966186
 20
-8.759469389915466
 30
0.0
 40
7.007575511932372
  0
LINE
  5
277
330
269
100
AcDbEntity
  8
A
  6
SYMBOL_P
 62
     3
100
AcDbLine
 10
0.0
 20
0.0
 30
0.0
 11
0.0
 21
-2.803030246541354
 31
0.0
  0
LINE
  5
278
330
269
100
AcDbEntity
  8
A
  6
SYMBOL_P
 62
     3
100
AcDbLine
 10
7.007575511932372
 20
0.0
 30
0.0
 11
7.007575511932372
 21
-2.803030246541354
 31
0.0
  0
CIRCLE
  5
279
330
269
100
AcDbEntity
  8
A
  6
SYMBOL_P
 62
     3
100
AcDbCircle
 10
3.503787755966186
 20
-8.759469389915466
 30
0.0
 40
5.25568163394928
  0
ARC
  5
27A
330
269
100
AcDbEntity
  8
A
  6
SYMBOL_P
 62
     3
100
AcDbCircle
 10
4.379734516143797
 20
-10.27777767181397
 30
0.0
 40
0.9927397966384887
100
AcDbArc
 50
28.07250353832339
 51
151.927486748533
  0
ARC
  5
27B
330
269
100
AcDbEntity
  8
A
  6
SYMBOL_P
 62
     3
100
AcDbCircle
 10
6.131628513336182
 20
-9.343434333801267
 30
0.0
 40
0.9927400946617128
100
AcDbArc
 50
208.0724738758569
 51
331.9275493976793
  0
TEXT
  5
27C
330
269
100
AcDbEntity
  8
A
  6
FIN
 62
     1
100
AcDbText
 10
2.257852165527682
 20
-7.330425119700607
 30
0.0
 40
2.327516152177539
  1
M
 41
0.9200000000000001
  7
ARIAL
 72
     4
 11
3.503787755966186
 21
-6.166667043611838
 31
0.0
100
AcDbText
  0
TEXT
  5
27D
330
269
100
AcDbEntity
  8
A
  6
FIN
 62
     1
100
AcDbText
 10
1.086421181068415
 20
-10.66834006708086
 30
0.0
 40
1.86201292174203
  1
1
 41
0.9200000000000001
  7
ARIAL
 72
     4
 11
1.751893930193599
 21
-9.733523211417747
 31
0.0
100
AcDbText
  0
ENDBLK
  5
27F
330
269
100
AcDbEntity
  8
0
100
AcDbBlockEnd
  0
BLOCK
  5
28F
330
286
100
AcDbEntity
  8
0
100
AcDbBlockBegin
  2
018C0_001_0_3_1
 70
     2
 10
0.0
 20
0.0
 30
0.0
  3
018C0_001_0_3_1
  1

  0
ATTDEF
  5
287
330
286
100
AcDbEntity
  8
A
  6
FIN
 62
     3
100
AcDbText
 10
-2.803030246541354
 20
-0.4642518724444686
 30
0.0
 40
1.629261306524275
  1

 41
0.9200000000000001
  7
ARIAL
 72
     2
 11
-2.803030246541354
 21
0.3503787808176693
 31
0.0
100
AcDbAttributeDefinition
  3

  2
$REPERE
 70
     0
 74
     2
  0
ATTDEF
  5
288
330
286
100
AcDbEntity
  8
A
  6
FIN
 62
     1
100
AcDbText
 10
-3.503787755966186
 20
-0.4642304922422041
 30
0.0
 40
1.629261306524275
  1

 41
0.9200000000000001
  7
ARIAL
 72
     2
 11
-3.503787755966186
 21
0.3504001610199339
 31
0.0
100
AcDbAttributeDefinition
  3

  2
$POS_REFCRO_1
 70
     0
 74
     2
  0
LWPOLYLINE
  5
289
330
286
100
AcDbEntity
  8
A
  6
CYAN
 62
     4
100
AcDbPolyline
 90
        4
 70
     0
 43
0.0
 10
0.0
 20
0.0
 10
-1.681818189693215
 20
0.8409090948466085
 10
-1.681818189693215
 20
-0.8409090948466085
 10
0.0
 20
0.0
  0
ENDBLK
  5
290
330
286
100
AcDbEntity
  8
0
100
AcDbBlockEnd
  0
BLOCK
  5
2AD
330
29D
100
AcDbEntity
  8
0
100
AcDbBlockBegin
  2
Y01P2N_Y01_0_3_1
 70
     2
 10
0.0
 20
0.0
 30
0.0
  3
Y01P2N_Y01_0_3_1
  1

  0
ATTDEF
  5
29E
330
29D
100
AcDbEntity
  8
A
  6
FIN
 62
     3
100
AcDbText
 10
12.26325714588165
 20
-4.200791374154674
 30
0.0
 40
2.094764536959782
  1

 41
0.9200000000000001
  7
ARIAL
 11
12.26325714588165
 21
-3.153409105674783
 31
0.0
100
AcDbAttributeDefinition
  3

  2
$NOMCOMP
 70
     0
 74
     2
  0
ATTDEF
  5
29F
330
29D
100
AcDbEntity
  8
A
  6
FIN
 62
     4
100
AcDbText
 10
12.26325714588165
 20
-9.574100043177605
 30
0.0
 40
1.629261306524275
  1

 41
0.9200000000000001
  7
ARIAL
 11
12.26325714588165
 21
-8.759469389915466
 31
0.0
100
AcDbAttributeDefinition
  3

  2
TYPE DE FREIN
 70
     0
 74
     2
  0
ATTDEF
  5
2A0
330
29D
100
AcDbEntity
  8
A
  6
FIN
 62
     4
100
AcDbText
 10
12.26325714588165
 20
-6.946259226202964
 30
0.0
 40
1.629261306524275
  1

 41
0.9200000000000001
  7
ARIAL
 11
12.26325714588165
 21
-6.131628572940826
 31
0.0
100
AcDbAttributeDefinition
  3

  2
TEMPS DE FREINAGE
 70
     0
 74
     2
  0
ATTDEF
  5
2A1
330
29D
100
AcDbEntity
  8
A
  6
FIN
 62
     3
100
AcDbText
 10
12.26325714588165
 20
2.047213215237053
 30
0.0
 40
1.86201292174203
  1

 41
0.9200000000000001
  7
ARIAL
 11
12.26325714588165
 21
2.978219676108068
 31
0.0
100
AcDbAttributeDefinition
  3

  2
$FONCTION
 70
     0
 74
     2
  0
ATTDEF
  5
2A2
330
29D
100
AcDbEntity
  8
A
  6
FIN
 62
     3
100
AcDbText
 10
12.26325714588165
 20
-0.9310064608710149
 30
0.0
 40
1.86201292174203
  1

 41
0.9200000000000001
  7
ARIAL
 11
12.26325714588165
 21
0.0
 31
0.0
100
AcDbAttributeDefinition
  3

  2
$LOCALISATION
 70
     0
 74
     2
  0
ATTDEF
  5
2A3
330
29D
100
AcDbEntity
  8
A
  6
FIN
 62
     1
100
AcDbText
 10
0.8759469389915466
 20
0.2946934102585365
 30
0.0
 40
1.512885498915399
  1

 41
0.9200000000000001
  7
ARIAL
 11
0.8759469389915466
 21
1.051136159716236
 31
0.0
100
AcDbAttributeDefinition
  3

  2
$PL:1
 70
     0
 74
     2
  0
ATTDEF
  5
2A4
330
29D
100
AcDbEntity
  8
A
  6
FIN
 62
     1
100
AcDbText
 10
7.883522450923918
 20
0.2946936191005603
 30
0.0
 40
1.512885498915399
  1

 41
0.9200000000000001
  7
ARIAL
 11
7.883522450923918
 21
1.051136368558259
 31
0.0
100
AcDbAttributeDefinition
  3

  2
$PL:2
 70
     0
 74
     2
  0
ATTDEF
  5
2A5
330
29D
100
AcDbEntity
  8
A
  6
FIN
 62
     1
100
AcDbText
 10
-6.657202082691582
 20
-12.90268771863382
 30
0.0
 40
1.629261306524275
  1

 41
0.9200000000000001
  7
ARIAL
 72
     2
 11
-6.657202082691582
 21
-12.08805706537169
 31
0.0
100
AcDbAttributeDefinition
  3

  2
$POS_REFCRO_1
 70
     0
 74
     2
  0
ATTDEF
  5
2A6
330
29D
100
AcDbEntity
  8
A
  6
FIN
 62
     4
100
AcDbText
 10
-7.357948941173162
 20
-14.54069780183635
 30
0.0
 40
1.629261306524275
  1

 41
0.9200000000000001
  7
ARIAL
 72
     4
 11
-7.357948941173162
 21
-14.54069780183635
 31
0.0
100
AcDbAttributeDefinition
  3

  2
$INTER_CROREF_1
 70
     0
 74
     2
  0
LINE
  5
2A7
330
29D
100
AcDbEntity
  8
A
  6
SYMBOL_P
 62
     3
100
AcDbLine
 10
7.883494048408577
 20
-5.255827405682423
 30
0.0
 11
-0.8759469389915466
 21
-5.25568163394928
 31
0.0
  0
LINE
  5
2A8
330
29D
100
AcDbEntity
  8
A
  6
SYMBOL_P
 62
     3
100
AcDbLine
 10
9.635299377373256
 20
-7.883726280739892
 30
0.0
 11
-2.627957768508395
 21
-7.883318621107948
 31
0.0
  0
LINE
  5
2A9
330
29D
100
AcDbEntity
  8
A
  6
SYMBOL_P
 62
     3
100
AcDbLine
 10
-2.627957768508395
 20
-7.883318621107948
 30
0.0
 11
-0.8759469389915466
 21
-5.25568163394928
 31
0.0
  0
LINE
  5
2AA
330
29D
100
AcDbEntity
  8
A
  6
SYMBOL_P
 62
     3
100
AcDbLine
 10
7.883494048408577
 20
-5.255827405682423
 30
0.0
 11
9.635299377373256
 21
-7.883726280739892
 31
0.0
  0
LINE
  5
2AB
330
29D
100
AcDbEntity
  8
A
  6
SYMBOL_P
 62
     3
100
AcDbLine
 10
0.0
 20
0.0
 30
0.0
 11
0.0
 21
-5.25568163394928
 31
0.0
  0
LINE
  5
2AC
330
29D
100
AcDbEntity
  8
A
  6
SYMBOL_P
 62
     3
100
AcDbLine
 10
7.007575511932372
 20
0.0
 30
0.0
 11
7.007575511932372
 21
-5.25568163394928
 31
0.0
  0
ENDBLK
  5
2AE
330
29D
100
AcDbEntity
  8
0
100
AcDbBlockEnd
  0
BLOCK
  5
2D1
330
2B5
100
AcDbEntity
  8
0
100
AcDbBlockBegin
  2
Y03C0_Y01_0_3_1
 70
     2
 10
0.0
 20
0.0
 30
0.0
  3
Y03C0_Y01_0_3_1
  1

  0
ATTDEF
  5
2B6
330
2B5
100
AcDbEntity
  8
A
  6
FIN
 62
     3
100
AcDbText
 10
-6.131628572940826
 20
-4.200791374154674
 30
0.0
 40
2.094764536959782
  1

 41
0.9200000000000001
  7
ARIAL
 72
     2
 11
-6.131628572940826
 21
-3.153409105674783
 31
0.0
100
AcDbAttributeDefinition
  3

  2
$NOMCOMP
 70
     0
 74
     2
  0
ATTDEF
  5
2B7
330
2B5
100
AcDbEntity
  8
A
  6
FIN
 62
     1
100
AcDbText
 10
0.8759469389915466
 20
-0.2308745651785691
 30
0.0
 40
1.512885498915399
  1

 41
0.9200000000000001
  7
ARIAL
 11
0.8759469389915466
 21
0.5255681842791306
 31
0.0
100
AcDbAttributeDefinition
  3

  2
$PL:1
 70
     0
 74
     2
  0
ATTDEF
  5
2B8
330
2B5
100
AcDbEntity
  8
A
  6
FIN
 62
     1
100
AcDbText
 10
0.8759469389915466
 20
-7.588829040665382
 30
0.0
 40
1.512885498915399
  1

 41
0.9200000000000001
  7
ARIAL
 11
0.8759469389915466
 21
-6.832386291207683
 31
0.0
100
AcDbAttributeDefinition
  3

  2
$PL:2
 70
     0
 74
     2
  0
ATTDEF
  5
2B9
330
2B5
100
AcDbEntity
  8
A
  6
FIN
 62
     3
100
AcDbText
 10
-6.131628572940826
 20
2.047213215237053
 30
0.0
 40
1.86201292174203
  1

 41
0.9200000000000001
  7
ARIAL
 72
     2
 11
-6.131628572940826
 21
2.978219676108068
 31
0.0
100
AcDbAttributeDefinition
  3

  2
$FONCTION
 70
     0
 74
     2
  0
ATTDEF
  5
2BA
330
2B5
100
AcDbEntity
  8
A
  6
FIN
 62
     3
100
AcDbText
 10
-6.131628572940826
 20
-0.9310064608710149
 30
0.0
 40
1.86201292174203
  1

 41
0.9200000000000001
  7
ARIAL
 72
     2
 11
-6.131628572940826
 21
0.0
 31
0.0
100
AcDbAttributeDefinition
  3

  2
$LOCALISATION
 70
     0
 74
     2
  0
ATTDEF
  5
2BB
330
2B5
100
AcDbEntity
  8
A
  6
FIN
 62
     4
100
AcDbText
 10
-6.131628572940826
 20
-6.946259226202964
 30
0.0
 40
1.629261306524275
  1

 41
0.9200000000000001
  7
ARIAL
 72
     2
 11
-6.131628572940826
 21
-6.131628572940826
 31
0.0
100
AcDbAttributeDefinition
  3

  2
TENSION
 70
     0
 74
     2
  0
ATTDEF
  5
2BC
330
2B5
100
AcDbEntity
  8
A
  6
FIN
 62
     1
100
AcDbText
 10
0.0
 20
28.03030204772948
 30
0.0
 40
1.078088541301335
  1

 41
0.96875
 72
     4
 11
0.0
 21
28.03030204772948
 31
0.0
100
AcDbAttributeDefinition
  3

  2
$POS_REFCRO_1
 70
     0
 74
     2
  0
LINE
  5
2BD
330
2B5
100
AcDbEntity
  8
A
  6
MOYEN
 62
     4
100
AcDbLine
 10
0.0
 20
-1.401515123270677
 30
0.0
 11
0.0
 21
0.0
 31
0.0
  0
LINE
  5
2BE
330
2B5
100
AcDbEntity
  8
A
  6
MOYEN
 62
     4
100
AcDbLine
 10
0.0
 20
-5.606060493082708
 30
0.0
 11
0.0
 21
-7.007575511932372
 31
0.0
  0
LINE
  5
2BF
330
2B5
100
AcDbEntity
  8
A
  6
SYMBOL_C
 62
     4
100
AcDbLine
 10
1.751893877983093
 20
-1.401515123270677
 30
0.0
 11
-1.751893877983093
 21
-5.606060493082708
 31
0.0
  0
LWPOLYLINE
  5
2C0
330
2B5
100
AcDbEntity
  8
A
  6
MOYEN
 62
     4
100
AcDbPolyline
 90
        3
 70
     0
 43
0.0
 10
3.503787755966186
 20
-1.401515123270677
 10
3.503787755966186
 20
0.0
 10
7.007575511932372
 20
0.0
  0
LWPOLYLINE
  5
2C5
330
2B5
100
AcDbEntity
  8
A
  6
MOYEN
 62
     4
100
AcDbPolyline
 90
        3
 70
     0
 43
0.0
 10
7.007575511932372
 20
-7.007575511932372
 10
3.503787755966186
 20
-7.007575511932372
 10
3.503787755966186
 20
-5.606060493082708
  0
LWPOLYLINE
  5
2CA
330
2B5
100
AcDbEntity
  8
A
  6
SYMBOL_C
 62
     4
100
AcDbPolyline
 90
        5
 70
     0
 43
0.0
 10
-3.503787755966186
 20
-1.401515123270677
 10
-3.503787755966186
 20
-5.606060493082708
 10
3.503787755966186
 20
-5.606060493082708
 10
3.503787755966186
 20
-1.401515123270677
 10
-3.503787755966186
 20
-1.401515123270677
  0
ENDBLK
  5
2D2
330
2B5
100
AcDbEntity
  8
0
100
AcDbBlockEnd
  0
BLOCK
  5
2E2
330
2D9
100
AcDbEntity
  8
0
100
AcDbBlockBegin
  2
008C0_001_0_3_1
 70
     2
 10
0.0
 20
0.0
 30
0.0
  3
008C0_001_0_3_1
  1

  0
ATTDEF
  5
2DA
330
2D9
100
AcDbEntity
  8
A
  6
FIN
 62
     3
100
AcDbText
 10
0.4642518724444686
 20
2.803030246541354
 30
0.0
 40
1.629261306524275
  1

 50
90.0
 41
0.9200000000000001
  7
ARIAL
 11
-0.3503787808176693
 21
2.803030246541354
 31
0.0
100
AcDbAttributeDefinition
  3

  2
$REPERE
 70
     0
 74
     2
  0
ATTDEF
  5
2DB
330
2D9
100
AcDbEntity
  8
A
  6
FIN
 62
     1
100
AcDbText
 10
0.464250541076562
 20
2.803040897484607
 30
0.0
 40
1.629261306524275
  1

 50
90.0
 41
0.9200000000000001
  7
ARIAL
 11
-0.3503801121855759
 21
2.803040897484607
 31
0.0
100
AcDbAttributeDefinition
  3

  2
$POS_REFCRO_1
 70
     0
 74
     2
  0
LWPOLYLINE
  5
2DC
330
2D9
100
AcDbEntity
  8
A
  6
CYAN
 62
     4
100
AcDbPolyline
 90
        4
 70
     0
 43
0.0
 10
0.0
 20
0.0
 10
-0.8409090948466085
 20
1.681818189693215
 10
0.8409090948466085
 20
1.681818189693215
 10
0.0
 20
0.0
  0
ENDBLK
  5
2E3
330
2D9
100
AcDbEntity
  8
0
100
AcDbBlockEnd
  0
BLOCK
  5
310
330
2E8
100
AcDbEntity
  8
0
100
AcDbBlockBegin
  2
DECTEUR_TEMP___LUM_KNX_0_3
 70
     2
 10
0.0
 20
0.0
 30
0.0
  3
DECTEUR_TEMP___LUM_KNX_0_3
  1

  0
ATTDEF
  5
2E9
330
2E8
100
AcDbEntity
  8
A
  6
FIN
 62
     3
100
AcDbText
 10
-15.76704490184783
 20
-11.55874553637845
 30
0.0
 40
2.094764536959782
  1

 41
0.9200000000000001
  7
ARIAL
 72
     2
 11
-15.76704490184783
 21
-10.51136326789856
 31
0.0
100
AcDbAttributeDefinition
  3

  2
$ETIQUETTE
 70
     0
 74
     2
  0
ATTDEF
  5
2EA
330
2E8
100
AcDbEntity
  8
A
  6
FIN
 62
     3
100
AcDbText
 10
-15.76704490184783
 20
-8.288962084988963
 30
0.0
 40
1.86201292174203
  1

 41
0.9200000000000001
  7
ARIAL
 72
     2
 11
-15.76704490184783
 21
-7.357955624117948
 31
0.0
100
AcDbAttributeDefinition
  3

  2
$LOCALISATION
 70
     0
 74
     2
  0
ATTDEF
  5
2EB
330
2E8
100
AcDbEntity
  8
A
  6
FIN
 62
     3
100
AcDbText
 10
-15.76704490184783
 20
-5.485927870449143
 30
0.0
 40
1.86201292174203
  1

 41
0.9200000000000001
  7
ARIAL
 72
     2
 11
-15.76704490184783
 21
-4.554921409578128
 31
0.0
100
AcDbAttributeDefinition
  3

  2
$FONCTION
 70
     0
 74
     2
  0
ATTDEF
  5
2EC
330
2E8
100
AcDbEntity
  8
A
  6
FIN
 62
     1
100
AcDbText
 10
-15.76704490184783
 20
-19.73508319889059
 30
0.0
 40
1.629261306524275
  1

 41
0.9200000000000001
  7
ARIAL
 72
     2
 11
-15.76704490184783
 21
-18.92045254562845
 31
0.0
100
AcDbAttributeDefinition
  3

  2
$POS_REFCRO_1
 70
     0
 74
     2
  0
ATTDEF
  5
2ED
330
2E8
100
AcDbEntity
  8
A
  6
FIN
 62
     1
100
AcDbText
 10
-15.76704490184783
 20
-16.93204898435077
 30
0.0
 40
1.629261306524275
  1

 41
0.9200000000000001
  7
ARIAL
 72
     2
 11
-15.76704490184783
 21
-16.11741833108863
 31
0.0
100
AcDbAttributeDefinition
  3

  2
CODE
 70
     0
 74
     2
  0
ATTDEF
  5
2EE
330
2E8
100
AcDbEntity
  8
A
  6
FIN
 62
     1
100
AcDbText
 10
-15.76704490184783
 20
-22.18773061830005
 30
0.0
 40
1.629261306524275
  1

 41
0.9200000000000001
  7
ARIAL
 72
     2
 11
-15.76704490184783
 21
-21.37309996503791
 31
0.0
100
AcDbAttributeDefinition
  3

  2
SYMBOLE
 70
     0
 74
     2
  0
ATTDEF
  5
2EF
330
2E8
100
AcDbEntity
  8
A
  6
FIN
 62
     1
100
AcDbText
 10
-15.76704490184783
 20
-14.4794015649413
 30
0.0
 40
1.629261306524275
  1

 41
0.9200000000000001
  7
ARIAL
 72
     2
 11
-15.76704490184783
 21
-13.66477091167917
 31
0.0
100
AcDbAttributeDefinition
  3

  2
FABRICANT
 70
     0
 74
     2
  0
ATTDEF
  5
2F0
330
2E8
100
AcDbEntity
  8
A
  6
FIN
 62
     1
100
AcDbText
 10
-15.76703821890305
 20
-24.64038472065428
 30
0.0
 40
1.629261306524275
  1

 41
0.9200000000000001
  7
ARIAL
 72
     2
 11
-15.76703821890305
 21
-23.82575406739215
 31
0.0
100
AcDbAttributeDefinition
  3

  2
SERIE
 70
     0
 74
     2
  0
ATTDEF
  5
2F1
330
2E8
100
AcDbEntity
  8
A
  6
FIN
 62
     1
100
AcDbText
 10
-7.007575511932372
 20
-24.87689273321269
 30
0.0
 40
1.512885498915399
  1

 41
0.9200000000000001
  7
ARIAL
 72
     4
 11
-7.007575511932372
 21
-24.87689273321269
 31
0.0
100
AcDbAttributeDefinition
  3

  2
$PL:1
 70
     0
 74
     2
  0
ATTDEF
  5
2F2
330
2E8
100
AcDbEntity
  8
A
  6
FIN
 62
     1
100
AcDbText
 10
0.0
 20
-24.87689273321269
 30
0.0
 40
1.512885498915399
  1

 41
0.9200000000000001
  7
ARIAL
 72
     4
 11
0.0
 21
-24.87689273321269
 31
0.0
100
AcDbAttributeDefinition
  3

  2
$PL:2
 70
     0
 74
     2
  0
ATTDEF
  5
2F3
330
2E8
100
AcDbEntity
  8
A
  6
FIN
 62
     1
100
AcDbText
 10
7.007575511932372
 20
-24.87689273321269
 30
0.0
 40
1.512885498915399
  1

 41
0.9200000000000001
  7
ARIAL
 72
     4
 11
7.007575511932372
 21
-24.87689273321269
 31
0.0
100
AcDbAttributeDefinition
  3

  2
$PL:3
 70
     0
 74
     2
  0
ATTDEF
  5
2F4
330
2E8
100
AcDbEntity
  8
A
  6
FIN
 62
     1
100
AcDbText
 10
14.01515102386475
 20
-24.87689273321269
 30
0.0
 40
1.512885498915399
  1

 41
0.9200000000000001
  7
ARIAL
 72
     4
 11
14.01515102386475
 21
-24.87689273321269
 31
0.0
100
AcDbAttributeDefinition
  3

  2
$PL:4
 70
     0
 74
     2
  0
LWPOLYLINE
  5
2F5
330
2E8
100
AcDbEntity
  8
A
  6
FIN
 62
     7
100
AcDbPolyline
 90
        5
 70
     0
 43
0.0
 10
-14.01515102386475
 20
0.0
 10
21.02272653579712
 20
0.0
 10
21.02272653579712
 20
-28.03030204772948
 10
-14.01515102386475
 20
-28.03030204772948
 10
-14.01515102386475
 20
0.0
  0
CIRCLE
  5
2FC
330
2E8
100
AcDbEntity
  8
A
  6
SYMBOL_C
 62
     4
100
AcDbCircle
 10
14.01515102386475
 20
-27.32954349409453
 30
0.0
 40
0.7007568828987587
  0
CIRCLE
  5
2FD
330
2E8
100
AcDbEntity
  8
A
  6
SYMBOL_C
 62
     4
100
AcDbCircle
 10
-7.007575511932372
 20
-27.32954182335834
 30
0.0
 40
0.7007568828987587
  0
CIRCLE
  5
2FE
330
2E8
100
AcDbEntity
  8
A
  6
SYMBOL_C
 62
     4
100
AcDbCircle
 10
0.0
 20
-27.32954349409453
 30
0.0
 40
0.7007568828987587
  0
CIRCLE
  5
2FF
330
2E8
100
AcDbEntity
  8
A
  6
SYMBOL_C
 62
     4
100
AcDbCircle
 10
7.007575511932372
 20
-27.32954182335834
 30
0.0
 40
0.7007568828987587
  0
LINE
  5
300
330
2E8
100
AcDbEntity
  8
A
  6
FIN
 62
     7
100
AcDbLine
 10
-7.007575511932372
 20
-21.02272653579712
 30
0.0
 11
14.01515102386475
 21
-21.02272653579712
 31
0.0
  0
LINE
  5
301
330
2E8
100
AcDbEntity
  8
A
  6
FIN
 62
     7
100
AcDbLine
 10
2.102273154800569
 20
-11.5624994276148
 30
0.0
 11
6.306818629033611
 21
-3.503787338282136
 31
0.0
  0
LINE
  5
302
330
2E8
100
AcDbEntity
  8
A
  6
FIN
 62
     7
100
AcDbLine
 10
3.854167868151762
 20
-12.26325714588165
 30
0.0
 11
8.058713342384807
 21
-4.204545056548992
 31
0.0
  0
ARC
  5
303
330
2E8
100
AcDbEntity
  8
A
  6
FIN
 62
     7
100
AcDbCircle
 10
2.792418003082274
 20
-12.55015563964843
 30
0.0
 40
1.20489227771759
100
AcDbArc
 50
124.9447073604313
 51
10.20042984537391
  0
LINE
  5
304
330
2E8
100
AcDbEntity
  8
A
  6
FIN
 62
     7
100
AcDbLine
 10
3.854167032783663
 20
-8.409090948466086
 30
0.0
 11
5.255682469317378
 21
-9.460227108182325
 31
0.0
  0
ARC
  5
305
330
2E8
100
AcDbEntity
  8
A
  6
FIN
 62
     7
100
AcDbCircle
 10
7.08720588684082
 20
-4.093060493469238
 30
0.0
 40
0.9778800010681152
100
AcDbArc
 50
353.4536667235478
 51
142.9434968297965
  0
LINE
  5
306
330
2E8
100
AcDbEntity
  8
A
  6
FIN
 62
     7
100
AcDbLine
 10
0.7007577182668571
 20
-9.460227108182325
 30
0.0
 11
9.460227108182325
 21
-6.657196652798946
 31
0.0
  0
LINE
  5
307
330
2E8
100
AcDbEntity
  8
A
  6
FIN
 62
     7
100
AcDbLine
 10
9.460227108182325
 20
-6.657196652798946
 30
0.0
 11
8.058711671648607
 21
-6.657196652798946
 31
0.0
  0
LINE
  5
308
330
2E8
100
AcDbEntity
  8
A
  6
FIN
 62
     7
100
AcDbLine
 10
9.460227108182325
 20
-6.657196652798946
 30
0.0
 11
8.409090948466086
 21
-7.70833323019923
 31
0.0
  0
TEXT
  5
309
330
2E8
100
AcDbEntity
  8
A
  6
FIN
 62
     1
100
AcDbText
 10
-1.296908980626488
 20
-23.54508147529465
 30
0.0
 40
1.512885498915399
  1
BK
 41
0.9200000000000001
  7
ARIAL
 72
     4
 11
0.000003341472393
 21
-22.78863872583694
 31
0.0
100
AcDbText
  0
TEXT
  5
30A
330
2E8
100
AcDbEntity
  8
A
  6
FIN
 62
     1
100
AcDbText
 10
-8.411772257047919
 20
-23.54508147529465
 30
0.0
 40
1.512885498915399
  1
RD
 41
0.9200000000000001
  7
ARIAL
 72
     4
 11
-7.007575094248324
 21
-22.78863872583694
 31
0.0
100
AcDbText
  0
TEXT
  5
30B
330
2E8
100
AcDbEntity
  8
A
  6
FIN
 62
     1
100
AcDbText
 10
12.71824120787014
 20
-23.54508147529465
 30
0.0
 40
1.512885498915399
  1
BK
 41
0.9200000000000001
  7
ARIAL
 72
     4
 11
14.01515352996903
 21
-22.78863872583694
 31
0.0
100
AcDbText
  0
TEXT
  5
30C
330
2E8
100
AcDbEntity
  8
A
  6
FIN
 62
     1
100
AcDbText
 10
5.60337793144873
 20
-23.54508147529465
 30
0.0
 40
1.512885498915399
  1
RD
 41
0.9200000000000001
  7
ARIAL
 72
     4
 11
7.007575094248324
 21
-22.78863872583694
 31
0.0
100
AcDbText
  0
TEXT
  5
30D
330
2E8
100
AcDbEntity
  8
A
  6
FIN
 62
     1
100
AcDbText
 10
-0.4405916306808157
 20
-20.02890993625413
 30
0.0
 40
1.512885498915399
  1
Bus KNX
 41
0.9200000000000001
  7
ARIAL
 72
     4
 11
3.503787755966186
 21
-19.28485096987077
 31
0.0
100
AcDbText
  0
TEXT
  5
30E
330
2E8
100
AcDbEntity
  8
A
  6
FIN
 62
     1
100
AcDbText
 10
5.650223412247302
 20
-11.54598158441684
 30
0.0
 40
1.396509691306523
  1
C°
 41
0.9200000000000001
  7
ARIAL
 72
     4
 11
6.65719644395692
 21
-10.84772673876358
 31
0.0
100
AcDbText
  0
TEXT
  5
30F
330
2E8
100
AcDbEntity
  8
A
  6
FIN
 62
     1
100
AcDbText
 10
-11.08736349342302
 20
-3.8381252800927
 30
0.0
 40
1.396509691306523
  1
THERMOSTAT
 41
0.9200000000000001
  7
ARIAL
 72
     4
 11
-4.905302774815851
 21
-3.139394135090426
 31
0.0
100
AcDbText
  0
ENDBLK
  5
311
330
2E8
100
AcDbEntity
  8
0
100
AcDbBlockEnd
  0
BLOCK
  5
352
330
31C
100
AcDbEntity
  8
0
100
AcDbBlockBegin
  2
DECTEUR_TEMP___LUM_2_KNX_0
 70
     2
 10
0.0
 20
0.0
 30
0.0
  3
DECTEUR_TEMP___LUM_2_KNX_0
  1

  0
ATTDEF
  5
31D
330
31C
100
AcDbEntity
  8
A
  6
FIN
 62
     3
100
AcDbText
 10
-15.76704490184783
 20
-11.55874553637845
 30
0.0
 40
2.094764536959782
  1

 41
0.9200000000000001
  7
ARIAL
 72
     2
 11
-15.76704490184783
 21
-10.51136326789856
 31
0.0
100
AcDbAttributeDefinition
  3

  2
$ETIQUETTE
 70
     0
 74
     2
  0
ATTDEF
  5
31E
330
31C
100
AcDbEntity
  8
A
  6
FIN
 62
     3
100
AcDbText
 10
-15.76704490184783
 20
-8.288962084988963
 30
0.0
 40
1.86201292174203
  1

 41
0.9200000000000001
  7
ARIAL
 72
     2
 11
-15.76704490184783
 21
-7.357955624117948
 31
0.0
100
AcDbAttributeDefinition
  3

  2
$LOCALISATION
 70
     0
 74
     2
  0
ATTDEF
  5
31F
330
31C
100
AcDbEntity
  8
A
  6
FIN
 62
     3
100
AcDbText
 10
-15.76704490184783
 20
-5.485927870449143
 30
0.0
 40
1.86201292174203
  1

 41
0.9200000000000001
  7
ARIAL
 72
     2
 11
-15.76704490184783
 21
-4.554921409578128
 31
0.0
100
AcDbAttributeDefinition
  3

  2
$FONCTION
 70
     0
 74
     2
  0
ATTDEF
  5
320
330
31C
100
AcDbEntity
  8
A
  6
FIN
 62
     1
100
AcDbText
 10
-15.76704490184783
 20
-19.73508319889059
 30
0.0
 40
1.629261306524275
  1

 41
0.9200000000000001
  7
ARIAL
 72
     2
 11
-15.76704490184783
 21
-18.92045254562845
 31
0.0
100
AcDbAttributeDefinition
  3

  2
$POS_REFCRO_1
 70
     0
 74
     2
  0
ATTDEF
  5
321
330
31C
100
AcDbEntity
  8
A
  6
FIN
 62
     1
100
AcDbText
 10
-15.76704490184783
 20
-16.93204898435077
 30
0.0
 40
1.629261306524275
  1

 41
0.9200000000000001
  7
ARIAL
 72
     2
 11
-15.76704490184783
 21
-16.11741833108863
 31
0.0
100
AcDbAttributeDefinition
  3

  2
CODE
 70
     0
 74
     2
  0
ATTDEF
  5
322
330
31C
100
AcDbEntity
  8
A
  6
FIN
 62
     1
100
AcDbText
 10
-15.76704490184783
 20
-22.18773061830005
 30
0.0
 40
1.629261306524275
  1

 41
0.9200000000000001
  7
ARIAL
 72
     2
 11
-15.76704490184783
 21
-21.37309996503791
 31
0.0
100
AcDbAttributeDefinition
  3

  2
SYMBOLE
 70
     0
 74
     2
  0
ATTDEF
  5
323
330
31C
100
AcDbEntity
  8
A
  6
FIN
 62
     1
100
AcDbText
 10
-15.76704490184783
 20
-14.4794015649413
 30
0.0
 40
1.629261306524275
  1

 41
0.9200000000000001
  7
ARIAL
 72
     2
 11
-15.76704490184783
 21
-13.66477091167917
 31
0.0
100
AcDbAttributeDefinition
  3

  2
FABRICANT
 70
     0
 74
     2
  0
ATTDEF
  5
324
330
31C
100
AcDbEntity
  8
A
  6
FIN
 62
     1
100
AcDbText
 10
-15.76703821890305
 20
-24.64038472065428
 30
0.0
 40
1.629261306524275
  1

 41
0.9200000000000001
  7
ARIAL
 72
     2
 11
-15.76703821890305
 21
-23.82575406739215
 31
0.0
100
AcDbAttributeDefinition
  3

  2
SERIE
 70
     0
 74
     2
  0
ATTDEF
  5
325
330
31C
100
AcDbEntity
  8
A
  6
FIN
 62
     1
100
AcDbText
 10
-7.007575511932372
 20
-24.87689273321269
 30
0.0
 40
1.512885498915399
  1

 41
0.9200000000000001
  7
ARIAL
 72
     4
 11
-7.007575511932372
 21
-24.87689273321269
 31
0.0
100
AcDbAttributeDefinition
  3

  2
$PL:1
 70
     0
 74
     2
  0
ATTDEF
  5
326
330
31C
100
AcDbEntity
  8
A
  6
FIN
 62
     1
100
AcDbText
 10
0.0
 20
-24.87689273321269
 30
0.0
 40
1.512885498915399
  1

 41
0.9200000000000001
  7
ARIAL
 72
     4
 11
0.0
 21
-24.87689273321269
 31
0.0
100
AcDbAttributeDefinition
  3

  2
$PL:2
 70
     0
 74
     2
  0
ATTDEF
  5
327
330
31C
100
AcDbEntity
  8
A
  6
FIN
 62
     1
100
AcDbText
 10
7.007575511932372
 20
-24.87689273321269
 30
0.0
 40
1.512885498915399
  1

 41
0.9200000000000001
  7
ARIAL
 72
     4
 11
7.007575511932372
 21
-24.87689273321269
 31
0.0
100
AcDbAttributeDefinition
  3

  2
$PL:3
 70
     0
 74
     2
  0
ATTDEF
  5
328
330
31C
100
AcDbEntity
  8
A
  6
FIN
 62
     1
100
AcDbText
 10
14.01515102386475
 20
-24.87689273321269
 30
0.0
 40
1.512885498915399
  1

 41
0.9200000000000001
  7
ARIAL
 72
     4
 11
14.01515102386475
 21
-24.87689273321269
 31
0.0
100
AcDbAttributeDefinition
  3

  2
$PL:4
 70
     0
 74
     2
  0
LWPOLYLINE
  5
329
330
31C
100
AcDbEntity
  8
A
  6
FIN
 62
     7
100
AcDbPolyline
 90
        5
 70
     0
 43
0.0
 10
-14.01515102386475
 20
0.0
 10
21.02272653579712
 20
0.0
 10
21.02272653579712
 20
-28.03030204772948
 10
-14.01515102386475
 20
-28.03030204772948
 10
-14.01515102386475
 20
0.0
  0
CIRCLE
  5
330
330
31C
100
AcDbEntity
  8
A
  6
SYMBOL_C
 62
     4
100
AcDbCircle
 10
14.01515102386475
 20
-27.32954349409453
 30
0.0
 40
0.7007568828987587
  0
CIRCLE
  5
331
330
31C
100
AcDbEntity
  8
A
  6
SYMBOL_C
 62
     4
100
AcDbCircle
 10
-7.007575511932372
 20
-27.32954182335834
 30
0.0
 40
0.7007568828987587
  0
CIRCLE
  5
332
330
31C
100
AcDbEntity
  8
A
  6
SYMBOL_C
 62
     4
100
AcDbCircle
 10
0.0
 20
-27.32954349409453
 30
0.0
 40
0.7007568828987587
  0
CIRCLE
  5
333
330
31C
100
AcDbEntity
  8
A
  6
SYMBOL_C
 62
     4
100
AcDbCircle
 10
7.007575511932372
 20
-27.32954182335834
 30
0.0
 40
0.7007568828987587
  0
LINE
  5
334
330
31C
100
AcDbEntity
  8
A
  6
FIN
 62
     7
100
AcDbLine
 10
-7.007575511932372
 20
-21.02272653579712
 30
0.0
 11
14.01515102386475
 21
-21.02272653579712
 31
0.0
  0
LINE
  5
335
330
31C
100
AcDbEntity
  8
A
  6
FIN
 62
     7
100
AcDbLine
 10
7.357954788749849
 20
-11.5624994276148
 30
0.0
 11
11.56250026298289
 21
-3.503787338282136
 31
0.0
  0
LINE
  5
336
330
31C
100
AcDbEntity
  8
A
  6
FIN
 62
     7
100
AcDbLine
 10
9.109849502101043
 20
-12.26325714588165
 30
0.0
 11
13.31439497633409
 21
-4.204545056548992
 31
0.0
  0
ARC
  5
337
330
31C
100
AcDbEntity
  8
A
  6
FIN
 62
     7
100
AcDbCircle
 10
8.048099517822267
 20
-12.55015563964843
 30
0.0
 40
1.204892158508301
100
AcDbArc
 50
124.9447027137561
 51
10.20042884148939
  0
LINE
  5
338
330
31C
100
AcDbEntity
  8
A
  6
FIN
 62
     7
100
AcDbLine
 10
9.109848666732943
 20
-8.409090948466086
 30
0.0
 11
10.51136410326666
 21
-9.460227108182325
 31
0.0
  0
ARC
  5
339
330
31C
100
AcDbEntity
  8
A
  6
FIN
 62
     7
100
AcDbCircle
 10
12.34288787841797
 20
-4.093060493469238
 30
0.0
 40
0.9778800010681152
100
AcDbArc
 50
353.4536643346398
 51
142.9435094567653
  0
LWPOLYLINE
  5
33A
330
31C
100
AcDbEntity
  8
A
  6
FIN
 62
     7
100
AcDbPolyline
 90
        5
 70
     0
 43
0.0
 10
-9.109848666732943
 20
-6.657196652798946
 10
-4.554924333366471
 20
-6.657196652798946
 10
-4.554924333366471
 20
-11.5624994276148
 10
-9.109848666732943
 20
-11.5624994276148
 10
-9.109848666732943
 20
-6.657196652798946
  0
LINE
  5
341
330
31C
100
AcDbEntity
  8
A
  6
FIN
 62
     7
100
AcDbLine
 10
4.554924333366471
 20
-2.452651387407924
 30
0.0
 11
0.3503787808176693
 21
-14.36552946531413
 31
0.0
  0
LINE
  5
342
330
31C
100
AcDbEntity
  8
A
  6
FIN
 62
     7
100
AcDbLine
 10
-8.759469389915466
 20
-8.058712507016705
 30
0.0
 11
-5.956439352216137
 21
-3.854166197415566
 31
0.0
  0
LINE
  5
343
330
31C
100
AcDbEntity
  8
A
  6
FIN
 62
     7
100
AcDbLine
 10
-8.759469389915466
 20
-8.058712507016705
 30
0.0
 11
-8.759469389915466
 21
-7.357953953381753
 31
0.0
  0
LINE
  5
344
330
31C
100
AcDbEntity
  8
A
  6
FIN
 62
     7
100
AcDbLine
 10
-8.759469389915466
 20
-8.058712507016705
 30
0.0
 11
-8.058712507016705
 21
-7.708332394831132
 31
0.0
  0
LINE
  5
345
330
31C
100
AcDbEntity
  8
A
  6
FIN
 62
     7
100
AcDbLine
 10
-7.357953953381753
 20
-8.058710836280511
 30
0.0
 11
-4.554923915682421
 21
-3.854166197415566
 31
0.0
  0
LINE
  5
346
330
31C
100
AcDbEntity
  8
A
  6
FIN
 62
     7
100
AcDbLine
 10
-7.357953953381753
 20
-8.058710836280511
 30
0.0
 11
-7.357953953381753
 21
-7.357953953381753
 31
0.0
  0
LINE
  5
347
330
31C
100
AcDbEntity
  8
A
  6
FIN
 62
     7
100
AcDbLine
 10
-7.357953953381753
 20
-8.058710836280511
 30
0.0
 11
-6.657196652798946
 21
-7.708332394831132
 31
0.0
  0
LINE
  5
348
330
31C
100
AcDbEntity
  8
A
  6
FIN
 62
     7
100
AcDbLine
 10
-5.606060493082708
 20
-8.058710836280511
 30
0.0
 11
-2.803030246541354
 21
-3.854166197415566
 31
0.0
  0
LINE
  5
349
330
31C
100
AcDbEntity
  8
A
  6
FIN
 62
     7
100
AcDbLine
 10
-5.606060493082708
 20
-8.058710836280511
 30
0.0
 11
-5.606060493082708
 21
-7.357953953381753
 31
0.0
  0
LINE
  5
34A
330
31C
100
AcDbEntity
  8
A
  6
FIN
 62
     7
100
AcDbLine
 10
-5.606060493082708
 20
-8.058710836280511
 30
0.0
 11
-4.905302774815851
 21
-7.708332394831132
 31
0.0
  0
TEXT
  5
34B
330
31C
100
AcDbEntity
  8
A
  6
FIN
 62
     1
100
AcDbText
 10
-1.296908980626488
 20
-23.54508147529465
 30
0.0
 40
1.512885498915399
  1
BK
 41
0.9200000000000001
  7
ARIAL
 72
     4
 11
0.000003341472393
 21
-22.78863872583694
 31
0.0
100
AcDbText
  0
TEXT
  5
34C
330
31C
100
AcDbEntity
  8
A
  6
FIN
 62
     1
100
AcDbText
 10
-8.411772257047919
 20
-23.54508147529465
 30
0.0
 40
1.512885498915399
  1
RD
 41
0.9200000000000001
  7
ARIAL
 72
     4
 11
-7.007575094248324
 21
-22.78863872583694
 31
0.0
100
AcDbText
  0
TEXT
  5
34D
330
31C
100
AcDbEntity
  8
A
  6
FIN
 62
     1
100
AcDbText
 10
12.71824120787014
 20
-23.54508147529465
 30
0.0
 40
1.512885498915399
  1
BK
 41
0.9200000000000001
  7
ARIAL
 72
     4
 11
14.01515352996903
 21
-22.78863872583694
 31
0.0
100
AcDbText
  0
TEXT
  5
34E
330
31C
100
AcDbEntity
  8
A
  6
FIN
 62
     1
100
AcDbText
 10
5.60337793144873
 20
-23.54508147529465
 30
0.0
 40
1.512885498915399
  1
RD
 41
0.9200000000000001
  7
ARIAL
 72
     4
 11
7.007575094248324
 21
-22.78863872583694
 31
0.0
100
AcDbText
  0
TEXT
  5
34F
330
31C
100
AcDbEntity
  8
A
  6
FIN
 62
     1
100
AcDbText
 10
-0.4405916306808157
 20
-20.02890993625413
 30
0.0
 40
1.512885498915399
  1
Bus KNX
 41
0.9200000000000001
  7
ARIAL
 72
     4
 11
3.503787755966186
 21
-19.28485096987077
 31
0.0
100
AcDbText
  0
TEXT
  5
350
330
31C
100
AcDbEntity
  8
A
  6
FIN
 62
     1
100
AcDbText
 10
10.90590483735456
 20
-11.54598158441684
 30
0.0
 40
1.396509691306523
  1
C°
 41
0.9200000000000001
  7
ARIAL
 72
     4
 11
11.91287786906418
 21
-10.84772673876358
 31
0.0
100
AcDbText
  0
TEXT
  5
351
330
31C
100
AcDbEntity
  8
A
  6
FIN
 62
     1
100
AcDbText
 10
-12.3086637591221
 20
-14.3375808554239
 30
0.0
 40
1.396509691306523
  1
Lux
 41
0.9200000000000001
  7
ARIAL
 72
     4
 11
-10.86174254471602
 21
-13.65075719414696
 31
0.0
100
AcDbText
  0
ENDBLK
  5
353
330
31C
100
AcDbEntity
  8
0
100
AcDbBlockEnd
  0
BLOCK
  5
380
330
35E
100
AcDbEntity
  8
0
100
AcDbBlockBegin
  2
INTERRUPTEUR_KNX_0_3_1
 70
     2
 10
0.0
 20
0.0
 30
0.0
  3
INTERRUPTEUR_KNX_0_3_1
  1

  0
ATTDEF
  5
35F
330
35E
100
AcDbEntity
  8
A
  6
FIN
 62
     3
100
AcDbText
 10
-15.76704490184783
 20
-11.55874553637845
 30
0.0
 40
2.094764536959782
  1

 41
0.9200000000000001
  7
ARIAL
 72
     2
 11
-15.76704490184783
 21
-10.51136326789856
 31
0.0
100
AcDbAttributeDefinition
  3

  2
$ETIQUETTE
 70
     0
 74
     2
  0
ATTDEF
  5
360
330
35E
100
AcDbEntity
  8
A
  6
FIN
 62
     3
100
AcDbText
 10
-15.76704490184783
 20
-8.288962084988963
 30
0.0
 40
1.86201292174203
  1

 41
0.9200000000000001
  7
ARIAL
 72
     2
 11
-15.76704490184783
 21
-7.357955624117948
 31
0.0
100
AcDbAttributeDefinition
  3

  2
$LOCALISATION
 70
     0
 74
     2
  0
ATTDEF
  5
361
330
35E
100
AcDbEntity
  8
A
  6
FIN
 62
     3
100
AcDbText
 10
-15.76704490184783
 20
-5.485927870449143
 30
0.0
 40
1.86201292174203
  1

 41
0.9200000000000001
  7
ARIAL
 72
     2
 11
-15.76704490184783
 21
-4.554921409578128
 31
0.0
100
AcDbAttributeDefinition
  3

  2
$FONCTION
 70
     0
 74
     2
  0
ATTDEF
  5
362
330
35E
100
AcDbEntity
  8
A
  6
FIN
 62
     1
100
AcDbText
 10
-15.76704490184783
 20
-19.73508319889059
 30
0.0
 40
1.629261306524275
  1

 41
0.9200000000000001
  7
ARIAL
 72
     2
 11
-15.76704490184783
 21
-18.92045254562845
 31
0.0
100
AcDbAttributeDefinition
  3

  2
$POS_REFCRO_1
 70
     0
 74
     2
  0
ATTDEF
  5
363
330
35E
100
AcDbEntity
  8
A
  6
FIN
 62
     1
100
AcDbText
 10
-15.76704490184783
 20
-16.93204898435077
 30
0.0
 40
1.629261306524275
  1

 41
0.9200000000000001
  7
ARIAL
 72
     2
 11
-15.76704490184783
 21
-16.11741833108863
 31
0.0
100
AcDbAttributeDefinition
  3

  2
CODE
 70
     0
 74
     2
  0
ATTDEF
  5
364
330
35E
100
AcDbEntity
  8
A
  6
FIN
 62
     1
100
AcDbText
 10
-15.76704490184783
 20
-22.18773061830005
 30
0.0
 40
1.629261306524275
  1

 41
0.9200000000000001
  7
ARIAL
 72
     2
 11
-15.76704490184783
 21
-21.37309996503791
 31
0.0
100
AcDbAttributeDefinition
  3

  2
SYMBOLE
 70
     0
 74
     2
  0
ATTDEF
  5
365
330
35E
100
AcDbEntity
  8
A
  6
FIN
 62
     1
100
AcDbText
 10
-15.76704490184783
 20
-14.4794015649413
 30
0.0
 40
1.629261306524275
  1

 41
0.9200000000000001
  7
ARIAL
 72
     2
 11
-15.76704490184783
 21
-13.66477091167917
 31
0.0
100
AcDbAttributeDefinition
  3

  2
FABRICANT
 70
     0
 74
     2
  0
ATTDEF
  5
366
330
35E
100
AcDbEntity
  8
A
  6
FIN
 62
     1
100
AcDbText
 10
-15.76703821890305
 20
-24.64038472065428
 30
0.0
 40
1.629261306524275
  1

 41
0.9200000000000001
  7
ARIAL
 72
     2
 11
-15.76703821890305
 21
-23.82575406739215
 31
0.0
100
AcDbAttributeDefinition
  3

  2
SERIE
 70
     0
 74
     2
  0
ATTDEF
  5
367
330
35E
100
AcDbEntity
  8
A
  6
FIN
 62
     1
100
AcDbText
 10
-7.007575511932372
 20
-24.87689273321269
 30
0.0
 40
1.512885498915399
  1

 41
0.9200000000000001
  7
ARIAL
 72
     4
 11
-7.007575511932372
 21
-24.87689273321269
 31
0.0
100
AcDbAttributeDefinition
  3

  2
$PL:1
 70
     0
 74
     2
  0
ATTDEF
  5
368
330
35E
100
AcDbEntity
  8
A
  6
FIN
 62
     1
100
AcDbText
 10
0.0
 20
-24.87689273321269
 30
0.0
 40
1.512885498915399
  1

 41
0.9200000000000001
  7
ARIAL
 72
     4
 11
0.0
 21
-24.87689273321269
 31
0.0
100
AcDbAttributeDefinition
  3

  2
$PL:2
 70
     0
 74
     2
  0
ATTDEF
  5
369
330
35E
100
AcDbEntity
  8
A
  6
FIN
 62
     1
100
AcDbText
 10
7.007575511932372
 20
-24.87689273321269
 30
0.0
 40
1.512885498915399
  1

 41
0.9200000000000001
  7
ARIAL
 72
     4
 11
7.007575511932372
 21
-24.87689273321269
 31
0.0
100
AcDbAttributeDefinition
  3

  2
$PL:3
 70
     0
 74
     2
  0
ATTDEF
  5
36A
330
35E
100
AcDbEntity
  8
A
  6
FIN
 62
     1
100
AcDbText
 10
14.01515102386475
 20
-24.87689273321269
 30
0.0
 40
1.512885498915399
  1

 41
0.9200000000000001
  7
ARIAL
 72
     4
 11
14.01515102386475
 21
-24.87689273321269
 31
0.0
100
AcDbAttributeDefinition
  3

  2
$PL:4
 70
     0
 74
     2
  0
LWPOLYLINE
  5
36B
330
35E
100
AcDbEntity
  8
A
  6
FIN
 62
     7
100
AcDbPolyline
 90
        5
 70
     0
 43
0.0
 10
-14.01515102386475
 20
0.0
 10
21.02272653579712
 20
0.0
 10
21.02272653579712
 20
-28.03030204772948
 10
-14.01515102386475
 20
-28.03030204772948
 10
-14.01515102386475
 20
0.0
  0
CIRCLE
  5
372
330
35E
100
AcDbEntity
  8
A
  6
SYMBOL_C
 62
     4
100
AcDbCircle
 10
14.01515102386475
 20
-27.32954349409453
 30
0.0
 40
0.7007568828987587
  0
CIRCLE
  5
373
330
35E
100
AcDbEntity
  8
A
  6
SYMBOL_C
 62
     4
100
AcDbCircle
 10
-7.007575511932372
 20
-27.32954182335834
 30
0.0
 40
0.7007568828987587
  0
CIRCLE
  5
374
330
35E
100
AcDbEntity
  8
A
  6
SYMBOL_C
 62
     4
100
AcDbCircle
 10
0.0
 20
-27.32954349409453
 30
0.0
 40
0.7007568828987587
  0
CIRCLE
  5
375
330
35E
100
AcDbEntity
  8
A
  6
SYMBOL_C
 62
     4
100
AcDbCircle
 10
7.007575511932372
 20
-27.32954182335834
 30
0.0
 40
0.7007568828987587
  0
LINE
  5
376
330
35E
100
AcDbEntity
  8
A
  6
FIN
 62
     7
100
AcDbLine
 10
-7.007575511932372
 20
-21.02272653579712
 30
0.0
 11
14.01515102386475
 21
-21.02272653579712
 31
0.0
  0
LINE
  5
377
330
35E
100
AcDbEntity
  8
A
  6
FIN
 62
     7
100
AcDbLine
 10
-3.503788591334285
 20
-7.357954788749849
 30
0.0
 11
0.3503778149233057
 21
-7.357954788749849
 31
0.0
  0
LINE
  5
378
330
35E
100
AcDbEntity
  8
A
  6
FIN
 62
     7
100
AcDbLine
 10
1.051135846453199
 20
-9.460227108182325
 30
0.0
 11
7.357953118013654
 21
-7.357954788749849
 31
0.0
  0
LINE
  5
379
330
35E
100
AcDbEntity
  8
A
  6
FIN
 62
     7
100
AcDbLine
 10
7.007574676564273
 20
-7.357954788749849
 30
0.0
 11
11.21211931542922
 21
-7.357954788749849
 31
0.0
  0
TEXT
  5
37A
330
35E
100
AcDbEntity
  8
A
  6
FIN
 62
     1
100
AcDbText
 10
-1.296908980626488
 20
-23.54508147529465
 30
0.0
 40
1.512885498915399
  1
BK
 41
0.9200000000000001
  7
ARIAL
 72
     4
 11
0.000003341472393
 21
-22.78863872583694
 31
0.0
100
AcDbText
  0
TEXT
  5
37B
330
35E
100
AcDbEntity
  8
A
  6
FIN
 62
     1
100
AcDbText
 10
-8.411772257047919
 20
-23.54508147529465
 30
0.0
 40
1.512885498915399
  1
RD
 41
0.9200000000000001
  7
ARIAL
 72
     4
 11
-7.007575094248324
 21
-22.78863872583694
 31
0.0
100
AcDbText
  0
TEXT
  5
37C
330
35E
100
AcDbEntity
  8
A
  6
FIN
 62
     1
100
AcDbText
 10
12.71824120787014
 20
-23.54508147529465
 30
0.0
 40
1.512885498915399
  1
BK
 41
0.9200000000000001
  7
ARIAL
 72
     4
 11
14.01515352996903
 21
-22.78863872583694
 31
0.0
100
AcDbText
  0
TEXT
  5
37D
330
35E
100
AcDbEntity
  8
A
  6
FIN
 62
     1
100
AcDbText
 10
5.60337793144873
 20
-23.54508147529465
 30
0.0
 40
1.512885498915399
  1
RD
 41
0.9200000000000001
  7
ARIAL
 72
     4
 11
7.007575094248324
 21
-22.78863872583694
 31
0.0
100
AcDbText
  0
TEXT
  5
37E
330
35E
100
AcDbEntity
  8
A
  6
FIN
 62
     1
100
AcDbText
 10
-0.4405916306808157
 20
-20.02890993625413
 30
0.0
 40
1.512885498915399
  1
Bus KNX
 41
0.9200000000000001
  7
ARIAL
 72
     4
 11
3.503787755966186
 21
-19.28485096987077
 31
0.0
100
AcDbText
  0
TEXT
  5
37F
330
35E
100
AcDbEntity
  8
A
  6
FIN
 62
     1
100
AcDbText
 10
-11.53178865531813
 20
-4.538882371833484
 30
0.0
 40
1.396509691306523
  1
COMMUTATEURS
 41
0.9200000000000001
  7
ARIAL
 72
     4
 11
-3.854167032783663
 21
-3.84015122683121
 31
0.0
100
AcDbText
  0
ENDBLK
  5
381
330
35E
100
AcDbEntity
  8
0
100
AcDbBlockEnd
  0
BLOCK
  5
3C9
330
397
100
AcDbEntity
  8
0
100
AcDbBlockBegin
  2
DECTEUR_MOUVEMENT_KNX_0_3_
 70
     2
 10
0.0
 20
0.0
 30
0.0
  3
DECTEUR_MOUVEMENT_KNX_0_3_
  1

  0
ATTDEF
  5
398
330
397
100
AcDbEntity
  8
A
  6
FIN
 62
     3
100
AcDbText
 10
-15.76704490184783
 20
-11.55874553637845
 30
0.0
 40
2.094764536959782
  1

 41
0.9200000000000001
  7
ARIAL
 72
     2
 11
-15.76704490184783
 21
-10.51136326789856
 31
0.0
100
AcDbAttributeDefinition
  3

  2
$ETIQUETTE
 70
     0
 74
     2
  0
ATTDEF
  5
399
330
397
100
AcDbEntity
  8
A
  6
FIN
 62
     3
100
AcDbText
 10
-15.76704490184783
 20
-8.288962084988963
 30
0.0
 40
1.86201292174203
  1

 41
0.9200000000000001
  7
ARIAL
 72
     2
 11
-15.76704490184783
 21
-7.357955624117948
 31
0.0
100
AcDbAttributeDefinition
  3

  2
$LOCALISATION
 70
     0
 74
     2
  0
ATTDEF
  5
39A
330
397
100
AcDbEntity
  8
A
  6
FIN
 62
     3
100
AcDbText
 10
-15.76704490184783
 20
-5.485927870449143
 30
0.0
 40
1.86201292174203
  1

 41
0.9200000000000001
  7
ARIAL
 72
     2
 11
-15.76704490184783
 21
-4.554921409578128
 31
0.0
100
AcDbAttributeDefinition
  3

  2
$FONCTION
 70
     0
 74
     2
  0
ATTDEF
  5
39B
330
397
100
AcDbEntity
  8
A
  6
FIN
 62
     1
100
AcDbText
 10
-15.76704490184783
 20
-19.73508319889059
 30
0.0
 40
1.629261306524275
  1

 41
0.9200000000000001
  7
ARIAL
 72
     2
 11
-15.76704490184783
 21
-18.92045254562845
 31
0.0
100
AcDbAttributeDefinition
  3

  2
$POS_REFCRO_1
 70
     0
 74
     2
  0
ATTDEF
  5
39C
330
397
100
AcDbEntity
  8
A
  6
FIN
 62
     1
100
AcDbText
 10
-15.76704490184783
 20
-16.93204898435077
 30
0.0
 40
1.629261306524275
  1

 41
0.9200000000000001
  7
ARIAL
 72
     2
 11
-15.76704490184783
 21
-16.11741833108863
 31
0.0
100
AcDbAttributeDefinition
  3

  2
CODE
 70
     0
 74
     2
  0
ATTDEF
  5
39D
330
397
100
AcDbEntity
  8
A
  6
FIN
 62
     1
100
AcDbText
 10
-15.76704490184783
 20
-22.18773061830005
 30
0.0
 40
1.629261306524275
  1

 41
0.9200000000000001
  7
ARIAL
 72
     2
 11
-15.76704490184783
 21
-21.37309996503791
 31
0.0
100
AcDbAttributeDefinition
  3

  2
SYMBOLE
 70
     0
 74
     2
  0
ATTDEF
  5
39E
330
397
100
AcDbEntity
  8
A
  6
FIN
 62
     1
100
AcDbText
 10
-15.76704490184783
 20
-14.4794015649413
 30
0.0
 40
1.629261306524275
  1

 41
0.9200000000000001
  7
ARIAL
 72
     2
 11
-15.76704490184783
 21
-13.66477091167917
 31
0.0
100
AcDbAttributeDefinition
  3

  2
FABRICANT
 70
     0
 74
     2
  0
ATTDEF
  5
39F
330
397
100
AcDbEntity
  8
A
  6
FIN
 62
     1
100
AcDbText
 10
-15.76703821890305
 20
-24.64038472065428
 30
0.0
 40
1.629261306524275
  1

 41
0.9200000000000001
  7
ARIAL
 72
     2
 11
-15.76703821890305
 21
-23.82575406739215
 31
0.0
100
AcDbAttributeDefinition
  3

  2
SERIE
 70
     0
 74
     2
  0
ATTDEF
  5
3A0
330
397
100
AcDbEntity
  8
A
  6
FIN
 62
     1
100
AcDbText
 10
-7.007575511932372
 20
-24.87689273321269
 30
0.0
 40
1.512885498915399
  1

 41
0.9200000000000001
  7
ARIAL
 72
     4
 11
-7.007575511932372
 21
-24.87689273321269
 31
0.0
100
AcDbAttributeDefinition
  3

  2
$PL:1
 70
     0
 74
     2
  0
ATTDEF
  5
3A1
330
397
100
AcDbEntity
  8
A
  6
FIN
 62
     1
100
AcDbText
 10
0.0
 20
-24.87689273321269
 30
0.0
 40
1.512885498915399
  1

 41
0.9200000000000001
  7
ARIAL
 72
     4
 11
0.0
 21
-24.87689273321269
 31
0.0
100
AcDbAttributeDefinition
  3

  2
$PL:2
 70
     0
 74
     2
  0
ATTDEF
  5
3A2
330
397
100
AcDbEntity
  8
A
  6
FIN
 62
     1
100
AcDbText
 10
7.007575511932372
 20
-24.87689273321269
 30
0.0
 40
1.512885498915399
  1

 41
0.9200000000000001
  7
ARIAL
 72
     4
 11
7.007575511932372
 21
-24.87689273321269
 31
0.0
100
AcDbAttributeDefinition
  3

  2
$PL:3
 70
     0
 74
     2
  0
ATTDEF
  5
3A3
330
397
100
AcDbEntity
  8
A
  6
FIN
 62
     1
100
AcDbText
 10
14.01515102386475
 20
-24.87689273321269
 30
0.0
 40
1.512885498915399
  1

 41
0.9200000000000001
  7
ARIAL
 72
     4
 11
14.01515102386475
 21
-24.87689273321269
 31
0.0
100
AcDbAttributeDefinition
  3

  2
$PL:4
 70
     0
 74
     2
  0
LWPOLYLINE
  5
3A4
330
397
100
AcDbEntity
  8
A
  6
FIN
 62
     7
100
AcDbPolyline
 90
        5
 70
     0
 43
0.0
 10
-14.01515102386475
 20
0.0
 10
21.02272653579712
 20
0.0
 10
21.02272653579712
 20
-28.03030204772948
 10
-14.01515102386475
 20
-28.03030204772948
 10
-14.01515102386475
 20
0.0
  0
CIRCLE
  5
3AB
330
397
100
AcDbEntity
  8
A
  6
SYMBOL_C
 62
     4
100
AcDbCircle
 10
14.01515102386475
 20
-27.32954349409453
 30
0.0
 40
0.7007568828987587
  0
CIRCLE
  5
3AC
330
397
100
AcDbEntity
  8
A
  6
SYMBOL_C
 62
     4
100
AcDbCircle
 10
-7.007575511932372
 20
-27.32954182335834
 30
0.0
 40
0.7007568828987587
  0
CIRCLE
  5
3AD
330
397
100
AcDbEntity
  8
A
  6
SYMBOL_C
 62
     4
100
AcDbCircle
 10
0.0
 20
-27.32954349409453
 30
0.0
 40
0.7007568828987587
  0
CIRCLE
  5
3AE
330
397
100
AcDbEntity
  8
A
  6
SYMBOL_C
 62
     4
100
AcDbCircle
 10
7.007575511932372
 20
-27.32954182335834
 30
0.0
 40
0.7007568828987587
  0
LINE
  5
3AF
330
397
100
AcDbEntity
  8
A
  6
FIN
 62
     7
100
AcDbLine
 10
-7.007575511932372
 20
-21.02272653579712
 30
0.0
 11
14.01515102386475
 21
-21.02272653579712
 31
0.0
  0
LWPOLYLINE
  5
3B0
330
397
100
AcDbEntity
  8
A
  6
FIN
 62
     7
100
AcDbPolyline
 90
        5
 70
     0
 43
0.0
 10
0.0
 20
-3.503787755966186
 10
7.007575511932372
 20
-3.503787755966186
 10
7.007575511932372
 20
-10.51136326789856
 10
0.0
 20
-10.51136326789856
 10
0.0
 20
-3.503787755966186
  0
LWPOLYLINE
  5
3B7
330
397
100
AcDbEntity
  8
A
  6
FIN
 62
     7
100
AcDbPolyline
 90
        5
 70
     0
 43
0.0
 10
1.401515123270677
 20
-4.905302774815851
 10
5.606060493082708
 20
-4.905302774815851
 10
5.606060493082708
 20
-9.109848666732943
 10
1.401515123270677
 20
-9.109848666732943
 10
1.401515123270677
 20
-4.905302774815851
  0
LINE
  5
3BE
330
397
100
AcDbEntity
  8
A
  6
FIN
 62
     7
100
AcDbLine
 10
1.751893877983093
 20
-8.058711671648607
 30
0.0
 11
-1.401515123270677
 21
-14.01515102386475
 31
0.0
  0
LINE
  5
3BF
330
397
100
AcDbEntity
  8
A
  6
FIN
 62
     7
100
AcDbLine
 10
2.803030246541354
 20
-8.409090948466086
 30
0.0
 11
1.751893877983093
 21
-14.01515102386475
 31
0.0
  0
LINE
  5
3C0
330
397
100
AcDbEntity
  8
A
  6
FIN
 62
     7
100
AcDbLine
 10
3.854166615099615
 20
-8.409090948466086
 30
0.0
 11
4.554924333366471
 21
-13.66477258241536
 31
0.0
  0
LINE
  5
3C1
330
397
100
AcDbEntity
  8
A
  6
FIN
 62
     7
100
AcDbLine
 10
4.905302774815851
 20
-8.058711671648607
 30
0.0
 11
8.058711671648607
 21
-13.66477258241536
 31
0.0
  0
ARC
  5
3C2
330
397
100
AcDbEntity
  8
A
  6
FIN
 62
     7
100
AcDbCircle
 10
3.503787755966186
 20
-2.189867019653318
 30
0.0
 40
3.434114456176758
100
AcDbArc
 50
232.253207401243
 51
307.7468140121741
  0
TEXT
  5
3C3
330
397
100
AcDbEntity
  8
A
  6
FIN
 62
     1
100
AcDbText
 10
-1.296908980626488
 20
-23.54508147529465
 30
0.0
 40
1.512885498915399
  1
BK
 41
0.9200000000000001
  7
ARIAL
 72
     4
 11
0.000003341472393
 21
-22.78863872583694
 31
0.0
100
AcDbText
  0
TEXT
  5
3C4
330
397
100
AcDbEntity
  8
A
  6
FIN
 62
     1
100
AcDbText
 10
-8.411772257047919
 20
-23.54508147529465
 30
0.0
 40
1.512885498915399
  1
RD
 41
0.9200000000000001
  7
ARIAL
 72
     4
 11
-7.007575094248324
 21
-22.78863872583694
 31
0.0
100
AcDbText
  0
TEXT
  5
3C5
330
397
100
AcDbEntity
  8
A
  6
FIN
 62
     1
100
AcDbText
 10
12.71824120787014
 20
-23.54508147529465
 30
0.0
 40
1.512885498915399
  1
BK
 41
0.9200000000000001
  7
ARIAL
 72
     4
 11
14.01515352996903
 21
-22.78863872583694
 31
0.0
100
AcDbText
  0
TEXT
  5
3C6
330
397
100
AcDbEntity
  8
A
  6
FIN
 62
     1
100
AcDbText
 10
5.60337793144873
 20
-23.54508147529465
 30
0.0
 40
1.512885498915399
  1
RD
 41
0.9200000000000001
  7
ARIAL
 72
     4
 11
7.007575094248324
 21
-22.78863872583694
 31
0.0
100
AcDbText
  0
TEXT
  5
3C7
330
397
100
AcDbEntity
  8
A
  6
FIN
 62
     1
100
AcDbText
 10
-0.4405916306808157
 20
-20.02890993625413
 30
0.0
 40
1.512885498915399
  1
Bus KNX
 41
0.9200000000000001
  7
ARIAL
 72
     4
 11
3.503787755966186
 21
-19.28485096987077
 31
0.0
100
AcDbText
  0
TEXT
  5
3C8
330
397
100
AcDbEntity
  8
A
  6
FIN
 62
     1
100
AcDbText
 10
-8.661830329185347
 20
-2.436609947979999
 30
0.0
 40
1.396509691306523
  1
DETECTEUR MOUVEMENTS
 41
0.9200000000000001
  7
ARIAL
 72
     4
 11
3.503788591334285
 21
-1.737878802977725
 31
0.0
100
AcDbText
  0
ENDBLK
  5
3CA
330
397
100
AcDbEntity
  8
0
100
AcDbBlockEnd
  0
ENDSEC
  0
SECTION
  2
ENTITIES
  0
INSERT
  5
CB
330
1F
100
AcDbEntity
  8
A
  6
FIN
 62
     0
100
AcDbBlockReference
  2
14
 10
0.0
 20
0.0
 30
0.0
  0
TEXT
  5
CC
330
1F
100
AcDbEntity
  8
A
  6
FIN
 62
     7
100
AcDbText
 10
265.3862031278785
 20
1.16170950460053
 30
0.0
 40
1.992857142857141
  1
FOLIO:
 41
0.9200000000000001
  7
ARIAL
 72
     4
 11
269.5845794677733
 21
2.158817768096924
 31
0.0
100
AcDbText
  0
TEXT
  5
CD
330
1F
100
AcDbEntity
  8
A
  6
FIN
 62
     7
100
AcDbText
 10
281.3927282589705
 20
1.10391902923584
 30
0.0
 40
1.992857142857141
  1
5
 41
0.9200000000000001
  7
ARIAL
 72
     2
 11
282.8171997070313
 21
1.10391902923584
 31
0.0
100
AcDbText
  0
TEXT
  5
CE
330
1F
100
AcDbEntity
  8
A
  6
FIN
 62
     7
100
AcDbText
 10
283.6761474609375
 20
1.090788841247559
 30
0.0
 40
1.992857142857141
  1
/
 41
0.9200000000000001
  7
ARIAL
100
AcDbText
  0
TEXT
  5
CF
330
1F
100
AcDbEntity
  8
A
  6
FIN
 62
     7
100
AcDbText
 10
285.0936889648437
 20
1.161208152770994
 30
0.0
 40
1.992857142857141
  1
5
 41
0.9200000000000001
  7
ARIAL
100
AcDbText
  0
TEXT
  5
D0
330
1F
100
AcDbEntity
  8
A
  6
FIN
 62
     7
100
AcDbText
 10
141.6080932617188
 20
15.69452667236328
 30
0.0
 40
1.992857142857141
  1
Etabli par:
 41
0.9200000000000001
  7
ARIAL
100
AcDbText
  0
TEXT
  5
D1
330
1F
100
AcDbEntity
  8
A
  6
FIN
 62
     7
100
AcDbText
 10
213.0204533226891
 20
15.39131184148407
 30
0.0
 40
1.992857142857141
  1
SEE-PROJECT
 41
0.9200000000000001
  7
ARIAL
 72
     4
 11
221.98624420166
 21
16.38842010498047
 31
0.0
100
AcDbText
  0
TEXT
  5
D2
330
1F
100
AcDbEntity
  8
A
  6
FIN
 62
     7
100
AcDbText
 10
172.2350921630859
 20
15.77711868286133
 30
0.0
 40
1.992857142857141
  1
Date :
 41
0.9200000000000001
  7
ARIAL
100
AcDbText
  0
TEXT
  5
D3
330
1F
100
AcDbEntity
  8
A
  6
FIN
 62
     7
100
AcDbText
 10
179.9422607421875
 20
15.48161888122559
 30
0.0
 40
1.992857142857141
  1
23/09/2008
 41
0.9200000000000001
  7
ARIAL
100
AcDbText
  0
TEXT
  5
D5
330
1F
100
AcDbEntity
  8
A
  6
FIN
 62
     7
100
AcDbText
 10
3.618404388427733
 20
3.265975952148437
 30
0.0
 40
3.321428571428572
  1
SORTIES ET DETECTEURS
 41
0.9200000000000001
  7
ARIAL
100
AcDbText
  0
TEXT
  5
D6
330
1F
100
AcDbEntity
  8
A
  6
FIN
 62
     7
100
AcDbText
 10
163.3501739501953
 20
10.57504653930664
 30
0.0
 40
1.992857142857141
  1
Modifications
 41
0.9200000000000001
  7
ARIAL
100
AcDbText
  0
TEXT
  5
D7
330
1F
100
AcDbEntity
  8
A
  6
FIN
 62
     7
100
AcDbText
 10
209.9400634765625
 20
10.40599346160889
 30
0.0
 40
1.992857142857141
  1
Date
 41
0.9200000000000001
  7
ARIAL
100
AcDbText
  0
TEXT
  5
D8
330
1F
100
AcDbEntity
  8
A
  6
FIN
 62
     7
100
AcDbText
 10
225.376022338867
 20
10.5940065383911
 30
0.0
 40
1.992857142857141
  1
Etabli par
 41
0.9200000000000001
  7
ARIAL
100
AcDbText
  0
TEXT
  5
D9
330
1F
100
AcDbEntity
  8
A
  6
FIN
 62
     7
100
AcDbText
 10
141.279098510742
 20
7.872970581054687
 30
0.0
 40
1.328571428571427
  1
Edition originale
 41
0.9200000000000001
  7
ARIAL
100
AcDbText
  0
TEXT
  5
DA
330
1F
100
AcDbEntity
  8
A
  6
FIN
 62
     7
100
AcDbText
 10
206.1279602050781
 20
7.882260322570799
 30
0.0
 40
1.328571428571427
  1
23/09/2008
 41
0.9200000000000001
  7
ARIAL
100
AcDbText
  0
TEXT
  5
DB
330
1F
100
AcDbEntity
  8
A
  6
FIN
 62
     7
100
AcDbText
 10
224.9320068359375
 20
7.882260322570799
 30
0.0
 40
1.328571428571427
  1
CB
 41
0.9200000000000001
  7
ARIAL
100
AcDbText
  0
TEXT
  5
DC
330
1F
100
AcDbEntity
  8
A
  6
FIN
 62
     7
100
AcDbText
 10
141.2750091552734
 20
5.451072692871092
 30
0.0
 40
1.328571428571427
  1
Modification circuit chauffage
 41
0.9200000000000001
  7
ARIAL
100
AcDbText
  0
TEXT
  5
DD
330
1F
100
AcDbEntity
  8
A
  6
FIN
 62
     7
100
AcDbText
 10
206.1238708496094
 20
5.460361480712891
 30
0.0
 40
1.328571428571427
  1
17/10/2008
 41
0.9200000000000001
  7
ARIAL
100
AcDbText
  0
TEXT
  5
DE
330
1F
100
AcDbEntity
  8
A
  6
FIN
 62
     7
100
AcDbText
 10
224.9279174804688
 20
5.460361480712891
 30
0.0
 40
1.328571428571427
  1
CB
 41
0.9200000000000001
  7
ARIAL
100
AcDbText
  0
TEXT
  5
DF
330
1F
100
AcDbEntity
  8
A
  6
FIN
 62
     7
100
AcDbText
 10
141.2959594726563
 20
2.898968696594238
 30
0.0
 40
1.328571428571427
  1
Modification sorties
 41
0.9200000000000001
  7
ARIAL
100
AcDbText
  0
TEXT
  5
E0
330
1F
100
AcDbEntity
  8
A
  6
FIN
 62
     7
100
AcDbText
 10
206.1448211669921
 20
2.908257484436035
 30
0.0
 40
1.328571428571427
  1
15/01/2009
 41
0.9200000000000001
  7
ARIAL
100
AcDbText
  0
TEXT
  5
E1
330
1F
100
AcDbEntity
  8
A
  6
FIN
 62
     7
100
AcDbText
 10
224.9488525390625
 20
2.908257484436035
 30
0.0
 40
1.328571428571427
  1
FA
 41
0.9200000000000001
  7
ARIAL
100
AcDbText
  0
LINE
  5
E2
330
1F
100
AcDbEntity
  8
A
  6
BLEU
 62
     5
100
AcDbLine
 10
77.08333063125609
 20
118.1060571670532
 30
0.0
 11
77.08333063125609
 21
132.1212081909179
 31
0.0
  0
LINE
  5
E3
330
1F
100
AcDbEntity
  8
A
  6
JAUNE
 62
     2
100
AcDbLine
 10
21.02272653579712
 20
48.03030204772949
 30
0.0
 11
21.02272653579712
 21
37.51893877983092
 31
0.0
  0
TEXT
  5
E4
330
1F
100
AcDbEntity
  8
A
  6
FIN
 62
     4
100
AcDbText
 10
19.93574713530164
 20
43.97989414536688
 30
0.0
 40
1.163758076088768
  1
+
 50
90.0
 41
1.149999999999999
  7
ARIAL
 72
     4
 11
19.55113541097353
 21
44.52581258256077
 31
0.0
100
AcDbText
  0
LINE
  5
E5
330
1F
100
AcDbEntity
  8
A
  6
JAUNE
 62
     2
100
AcDbLine
 10
28.03030204772948
 20
48.03030204772949
 30
0.0
 11
28.03030204772948
 21
34.01515102386475
 31
0.0
  0
TEXT
  5
E6
330
1F
100
AcDbEntity
  8
A
  6
FIN
 62
     4
100
AcDbText
 10
26.63055274138204
 20
44.2152129755708
 30
0.0
 40
1.163758076088768
  1
-
 50
90.0
 41
1.149999999999999
  7
ARIAL
 72
     4
 11
26.5587109229059
 21
44.52651429176331
 31
0.0
100
AcDbText
  0
LINE
  5
E9
330
1F
100
AcDbEntity
  8
A
  6
BLEU
 62
     5
100
AcDbLine
 10
91.09848165512085
 20
121.6098449230194
 30
0.0
 11
91.09848165512085
 21
76.06060409545898
 31
0.0
  0
LINE
  5
EA
330
1F
100
AcDbEntity
  8
A
  6
BLEU
 62
     5
100
AcDbLine
 10
35.03787755966187
 20
181.1742367744445
 30
0.0
 11
49.05302858352661
 21
181.1742367744445
 31
0.0
  0
LINE
  5
EB
330
1F
100
AcDbEntity
  8
A
  6
BLEU
 62
     5
100
AcDbLine
 10
63.06817960739135
 20
76.06060409545898
 30
0.0
 11
63.06817960739135
 21
97.08333063125609
 31
0.0
  0
LINE
  5
EC
330
1F
100
AcDbEntity
  8
A
  6
BLEU
 62
     5
100
AcDbLine
 10
49.05302858352661
 20
181.1742367744445
 30
0.0
 11
49.05302858352661
 21
160.1515102386473
 31
0.0
  0
HATCH
  5
EF
330
1F
100
AcDbEntity
  8
A
  6
BLEU
 62
     5
100
AcDbHatch
 10
0.0
 20
0.0
 30
0.0
210
0.0
220
0.0
230
1.0
  2
SOLID
 70
     1
 71
     0
 91
        1
 92
        0
 93
        1
 72
     2
 10
21.02272653579712
 20
90.07575511932371
 40
0.6499999761581421
 50
0.0
 51
360.0
 73
     1
 97
        0
 75
     0
 76
     1
 98
        0
  0
LINE
  5
F0
330
1F
100
AcDbEntity
  8
A
  6
BLEU
 62
     5
100
AcDbLine
 10
14.01515102386475
 20
90.07575511932371
 30
0.0
 11
20.37272656633758
 21
90.07575511932371
 31
0.0
  0
TEXT
  5
F1
330
1F
100
AcDbEntity
  8
A
  6
FIN
 62
     4
100
AcDbText
 10
15.95923702406878
 20
90.9730086124623
 30
0.0
 40
1.163758076088768
  1
116
 41
1.149999999999999
  7
ARIAL
 72
     4
 11
17.51893877983093
 21
91.54734624414732
 31
0.0
100
AcDbText
  0
HATCH
  5
F2
330
1F
100
AcDbEntity
  8
A
  6
BLEU
 62
     5
100
AcDbHatch
 10
0.0
 20
0.0
 30
0.0
210
0.0
220
0.0
230
1.0
  2
SOLID
 70
     1
 71
     0
 91
        1
 92
        0
 93
        1
 72
     2
 10
154.1666612625121
 20
121.6098449230194
 40
0.6499999761581421
 50
0.0
 51
360.0
 73
     1
 97
        0
 75
     0
 76
     1
 98
        0
  0
LINE
  5
F3
330
1F
100
AcDbEntity
  8
A
  6
BLEU
 62
     5
100
AcDbLine
 10
154.1666612625121
 20
104.0909061431884
 30
0.0
 11
154.1666612625121
 21
120.9598449535599
 31
0.0
  0
TEXT
  5
F4
330
1F
100
AcDbEntity
  8
A
  6
FIN
 62
     4
100
AcDbText
 10
153.2694144523184
 20
114.4440814211224
 30
0.0
 40
1.163758076088768
  1
126
 50
90.0
 41
1.149999999999999
  7
ARIAL
 72
     4
 11
152.6950768206334
 21
116.0037831768846
 31
0.0
100
AcDbText
  0
LINE
  5
F5
330
1F
100
AcDbEntity
  8
A
  6
VIOLET
 62
     6
100
AcDbLine
 10
105.1136326789855
 20
90.07575511932371
 30
0.0
 11
105.1136326789855
 21
93.57954287528992
 31
0.0
  0
LINE
  5
F6
330
1F
100
AcDbEntity
  8
A
  6
JAUNE
 62
     2
100
AcDbLine
 10
164.6780245304108
 20
37.51893877983092
 30
0.0
 11
164.6780245304108
 21
48.03030204772949
 31
0.0
  0
TEXT
  5
F7
330
1F
100
AcDbEntity
  8
A
  6
FIN
 62
     4
100
AcDbText
 10
163.5906548967359
 20
44.59682156307343
 30
0.0
 40
1.163758076088768
  1
+ 
 50
90.0
 41
1.149999999999999
  7
ARIAL
 72
     4
 11
163.206440088532
 21
45.40246206612295
 31
0.0
100
AcDbText
  0
HATCH
  5
F8
330
1F
100
AcDbEntity
  8
A
  6
BLEU
 62
     5
100
AcDbHatch
 10
0.0
 20
0.0
 30
0.0
210
0.0
220
0.0
230
1.0
  2
SOLID
 70
     1
 71
     0
 91
        1
 92
        0
 93
        1
 72
     2
 10
49.05302858352661
 20
132.1212081909179
 40
0.6499999761581421
 50
0.0
 51
360.0
 73
     1
 97
        0
 75
     0
 76
     1
 98
        0
  0
LINE
  5
F9
330
1F
100
AcDbEntity
  8
A
  6
BLEU
 62
     5
100
AcDbLine
 10
42.04545307159424
 20
132.1212081909179
 30
0.0
 11
48.40302861406707
 21
132.1212081909179
 31
0.0
  0
TEXT
  5
FA
330
1F
100
AcDbEntity
  8
A
  6
FIN
 62
     4
100
AcDbText
 10
43.98953907179828
 20
133.0184550011117
 30
0.0
 40
1.163758076088768
  1
115
 41
1.149999999999999
  7
ARIAL
 72
     4
 11
45.54924082756043
 21
133.5927926327967
 31
0.0
100
AcDbText
  0
LINE
  5
FB
330
1F
100
AcDbEntity
  8
A
  6
BLEU
 62
     5
100
AcDbLine
 10
63.06817960739135
 20
128.6174204349518
 30
0.0
 11
70.07575511932373
 21
128.6174204349518
 31
0.0
  0
LINE
  5
FC
330
1F
100
AcDbEntity
  8
A
  6
BLEU
 62
     5
100
AcDbLine
 10
35.03787755966187
 20
76.06060409545898
 30
0.0
 11
35.03787755966187
 21
97.08333063125609
 31
0.0
  0
TEXT
  5
FD
330
1F
100
AcDbEntity
  8
A
  6
FIN
 62
     4
100
AcDbText
 10
34.14062406652329
 20
81.50777614242668
 30
0.0
 40
1.163758076088768
  1
501
 50
90.0
 41
1.149999999999999
  7
ARIAL
 72
     4
 11
33.56628643483828
 21
83.06747789818883
 31
0.0
100
AcDbText
  0
LINE
  5
FE
330
1F
100
AcDbEntity
  8
A
  6
JAUNE
 62
     2
100
AcDbLine
 10
171.6856000423431
 20
34.01515102386475
 30
0.0
 11
206.723477602005
 21
34.01515102386475
 31
0.0
  0
TEXT
  5
FF
330
1F
100
AcDbEntity
  8
A
  6
FIN
 62
     4
100
AcDbText
 10
181.6259466111382
 20
35.41529724633637
 30
0.0
 40
1.163758076088768
  1
- 
 41
1.149999999999999
  7
ARIAL
 72
     4
 11
182.1969699931864
 21
35.48674214868834
 31
0.0
100
AcDbText
  0
LINE
  5
100
330
1F
100
AcDbEntity
  8
A
  6
BLEU
 62
     5
100
AcDbLine
 10
49.70302855298615
 20
132.1212081909179
 30
0.0
 11
77.08333063125609
 21
132.1212081909179
 31
0.0
  0
TEXT
  5
101
330
1F
100
AcDbEntity
  8
A
  6
FIN
 62
     4
100
AcDbText
 10
61.5084778516292
 20
133.0184550011117
 30
0.0
 40
1.163758076088768
  1
115
 41
1.149999999999999
  7
ARIAL
 72
     4
 11
63.06817960739135
 21
133.5927926327967
 31
0.0
100
AcDbText
  0
LINE
  5
102
330
1F
100
AcDbEntity
  8
A
  6
BLEU
 62
     5
100
AcDbLine
 10
63.06817960739135
 20
104.0909061431884
 30
0.0
 11
63.06817960739135
 21
128.6174204349518
 31
0.0
  0
TEXT
  5
103
330
1F
100
AcDbEntity
  8
A
  6
FIN
 62
     4
100
AcDbText
 10
62.17092611425279
 20
120.0480447225943
 30
0.0
 40
1.163758076088768
  1
502
 50
90.0
 41
1.149999999999999
  7
ARIAL
 72
     4
 11
61.59658848256778
 21
121.6077464783564
 31
0.0
100
AcDbText
  0
LINE
  5
104
330
1F
100
AcDbEntity
  8
A
  6
JAUNE
 62
     2
100
AcDbLine
 10
287.3105959892273
 20
93.57954287528992
 30
0.0
 11
287.3105959892273
 21
146.1363592147827
 31
0.0
  0
LINE
  5
105
330
1F
100
AcDbEntity
  8
A
  6
JAUNE
 62
     2
100
AcDbLine
 10
14.01515102386475
 20
37.51893877983092
 30
0.0
 11
21.02272653579712
 21
37.51893877983092
 31
0.0
  0
TEXT
  5
106
330
1F
100
AcDbEntity
  8
A
  6
FIN
 62
     4
100
AcDbText
 10
16.97302034263703
 20
38.60591818032641
 30
0.0
 40
1.163758076088768
  1
+
 41
1.149999999999999
  7
ARIAL
 72
     4
 11
17.51893877983093
 21
38.99052990465452
 31
0.0
100
AcDbText
  0
LINE
  5
107
330
1F
100
AcDbEntity
  8
A
  6
JAUNE
 62
     2
100
AcDbLine
 10
14.01515102386475
 20
34.01515102386475
 30
0.0
 11
28.03030204772948
 21
34.01515102386475
 31
0.0
  0
TEXT
  5
108
330
1F
100
AcDbEntity
  8
A
  6
FIN
 62
     4
100
AcDbText
 10
17.20763746363842
 20
35.41490033021219
 30
0.0
 40
1.163758076088768
  1
-
 41
1.149999999999999
  7
ARIAL
 72
     4
 11
17.51893877983093
 21
35.48674214868834
 31
0.0
100
AcDbText
  0
LINE
  5
109
330
1F
100
AcDbEntity
  8
A
  6
JAUNE
 62
     2
100
AcDbLine
 10
283.8068082332611
 20
97.08333063125609
 30
0.0
 11
283.8068082332611
 21
142.6325714588164
 31
0.0
  0
LINE
  5
10A
330
1F
100
AcDbEntity
  8
A
  6
BLEU
 62
     5
100
AcDbLine
 10
140.1515102386474
 20
104.0909061431884
 30
0.0
 11
154.1666612625121
 21
104.0909061431884
 31
0.0
  0
LINE
  5
10B
330
1F
100
AcDbEntity
  8
A
  6
BLEU
 62
     5
100
AcDbLine
 10
21.67272650525666
 20
90.07575511932371
 30
0.0
 11
49.05302858352661
 21
90.07575511932371
 31
0.0
  0
LINE
  5
10C
330
1F
100
AcDbEntity
  8
A
  6
BLEU
 62
     5
100
AcDbLine
 10
21.02272653579712
 20
76.06060409545898
 30
0.0
 11
21.02272653579712
 21
89.42575514986421
 31
0.0
  0
TEXT
  5
10D
330
1F
100
AcDbEntity
  8
A
  6
FIN
 62
     4
100
AcDbText
 10
20.12547304265854
 20
81.50847785162921
 30
0.0
 40
1.163758076088768
  1
116
 50
90.0
 41
1.149999999999999
  7
ARIAL
 72
     4
 11
19.55113541097353
 21
83.06817960739136
 31
0.0
100
AcDbText
  0
LINE
  5
10E
330
1F
100
AcDbEntity
  8
A
  6
BLEU
 62
     5
100
AcDbLine
 10
119.1287837028502
 20
104.0909061431884
 30
0.0
 11
133.1439347267149
 21
104.0909061431884
 31
0.0
  0
LINE
  5
10F
330
1F
100
AcDbEntity
  8
A
  6
BLEU
 62
     5
100
AcDbLine
 10
49.05302858352661
 20
76.06060409545898
 30
0.0
 11
49.05302858352661
 21
90.07575511932371
 31
0.0
  0
TEXT
  5
110
330
1F
100
AcDbEntity
  8
A
  6
FIN
 62
     4
100
AcDbText
 10
48.15577509038803
 20
81.50847785162921
 30
0.0
 40
1.163758076088768
  1
116
 50
90.0
 41
1.149999999999999
  7
ARIAL
 72
     4
 11
47.58143745870301
 21
83.06817960739136
 31
0.0
100
AcDbText
  0
LINE
  5
111
330
1F
100
AcDbEntity
  8
A
  6
VIOLET
 62
     6
100
AcDbLine
 10
105.1136326789855
 20
76.06060409545898
 30
0.0
 11
105.1136326789855
 21
83.06817960739136
 31
0.0
  0
HATCH
  5
112
330
1F
100
AcDbEntity
  8
A
  6
VIOLET
 62
     6
100
AcDbHatch
 10
0.0
 20
0.0
 30
0.0
210
0.0
220
0.0
230
1.0
  2
SOLID
 70
     1
 71
     0
 91
        1
 92
        0
 93
        1
 72
     2
 10
77.08333063125609
 20
93.57954287528992
 40
0.6499999761581421
 50
0.0
 51
360.0
 73
     1
 97
        0
 75
     0
 76
     1
 98
        0
  0
LINE
  5
113
330
1F
100
AcDbEntity
  8
A
  6
VIOLET
 62
     6
100
AcDbLine
 10
105.1136326789855
 20
93.57954287528992
 30
0.0
 11
77.73333060071566
 21
93.57954287528992
 31
0.0
  0
TEXT
  5
114
330
1F
100
AcDbEntity
  8
A
  6
FIN
 62
     6
100
AcDbText
 10
95.40887869530653
 20
93.96401080093282
 30
0.0
 40
1.86201292174203
  1
125
 41
0.9200000000000001
  7
ARIAL
 72
     4
 11
97.40529694268207
 21
94.88295101162883
 31
0.0
100
AcDbText
  0
LINE
  5
115
330
1F
100
AcDbEntity
  8
A
  6
JAUNE
 62
     2
100
AcDbLine
 10
266.2878694534301
 20
97.08333063125609
 30
0.0
 11
266.2878694534301
 21
104.0909061431884
 31
0.0
  0
TEXT
  5
116
330
1F
100
AcDbEntity
  8
A
  6
FIN
 62
     4
100
AcDbText
 10
265.2004998197552
 20
99.52175247684479
 30
0.0
 40
1.163758076088768
  1
  +
 50
90.0
 41
1.149999999999999
  7
ARIAL
 72
     4
 11
264.8162850115513
 21
100.5871150457499
 31
0.0
100
AcDbText
  0
LINE
  5
117
330
1F
100
AcDbEntity
  8
A
  6
BLEU
 62
     5
100
AcDbLine
 10
119.1287837028502
 20
104.0909061431884
 30
0.0
 11
119.1287837028502
 21
76.06060409545898
 31
0.0
  0
TEXT
  5
118
330
1F
100
AcDbEntity
  8
A
  6
FIN
 62
     4
100
AcDbText
 10
118.2315368926565
 20
81.50847785162921
 30
0.0
 40
1.163758076088768
  1
504
 50
90.0
 41
1.149999999999999
  7
ARIAL
 72
     4
 11
117.6571992609715
 21
83.06817960739136
 31
0.0
100
AcDbText
  0
LINE
  5
119
330
1F
100
AcDbEntity
  8
A
  6
VIOLET
 62
     6
100
AcDbLine
 10
70.07575511932373
 20
93.57954287528992
 30
0.0
 11
76.43333066179656
 21
93.57954287528992
 31
0.0
  0
TEXT
  5
11A
330
1F
100
AcDbEntity
  8
A
  6
FIN
 62
     6
100
AcDbText
 10
71.58312462791439
 20
93.96401080093282
 30
0.0
 40
1.86201292174203
  1
125
 41
0.9200000000000001
  7
ARIAL
 72
     4
 11
73.57954287528993
 21
94.88295101162883
 31
0.0
100
AcDbText
  0
LINE
  5
11B
330
1F
100
AcDbEntity
  8
A
  6
JAUNE
 62
     2
100
AcDbLine
 10
252.2727184295654
 20
142.6325714588164
 30
0.0
 11
283.8068082332611
 21
142.6325714588164
 31
0.0
  0
LINE
  5
11C
330
1F
100
AcDbEntity
  8
A
  6
JAUNE
 62
     2
100
AcDbLine
 10
259.2802939414978
 20
90.07575511932371
 30
0.0
 11
287.3105959892273
 21
90.07575511932371
 31
0.0
  0
LINE
  5
11D
330
1F
100
AcDbEntity
  8
A
  6
JAUNE
 62
     2
100
AcDbLine
 10
259.2802939414978
 20
146.1363592147827
 30
0.0
 11
287.3105959892273
 21
146.1363592147827
 31
0.0
  0
LINE
  5
11E
330
1F
100
AcDbEntity
  8
A
  6
BLEU
 62
     5
100
AcDbLine
 10
91.09848165512085
 20
121.6098449230194
 30
0.0
 11
133.1439347267149
 21
121.6098449230194
 31
0.0
  0
TEXT
  5
11F
330
1F
100
AcDbEntity
  8
A
  6
FIN
 62
     4
100
AcDbText
 10
110.561499752211
 20
122.5074953322821
 30
0.0
 40
1.163758076088768
  1
503
 41
1.149999999999999
  7
ARIAL
 72
     4
 11
112.1212015079732
 21
123.081436047843
 31
0.0
100
AcDbText
  0
LINE
  5
120
330
1F
100
AcDbEntity
  8
A
  6
JAUNE
 62
     2
100
AcDbLine
 10
259.2802939414978
 20
90.07575511932371
 30
0.0
 11
259.2802939414978
 21
104.0909061431884
 31
0.0
  0
TEXT
  5
121
330
1F
100
AcDbEntity
  8
A
  6
FIN
 62
     4
100
AcDbText
 10
257.8801544019709
 20
100.0160916637017
 30
0.0
 40
1.163758076088768
  1
 -
 50
90.0
 41
1.149999999999999
  7
ARIAL
 72
     4
 11
257.808709499619
 21
100.5871150457499
 31
0.0
100
AcDbText
  0
LINE
  5
122
330
1F
100
AcDbEntity
  8
A
  6
JAUNE
 62
     2
100
AcDbLine
 10
252.2727184295654
 20
142.6325714588164
 30
0.0
 11
252.2727184295654
 21
167.1590857505798
 31
0.0
  0
TEXT
  5
123
330
1F
100
AcDbEntity
  8
A
  6
FIN
 62
     4
100
AcDbText
 10
251.1853487958904
 20
155.5816715704631
 30
0.0
 40
1.163758076088768
  1
  +
 50
90.0
 41
1.149999999999999
  7
ARIAL
 72
     4
 11
250.8011339876865
 21
156.6470341393683
 31
0.0
100
AcDbText
  0
LINE
  5
124
330
1F
100
AcDbEntity
  8
A
  6
JAUNE
 62
     2
100
AcDbLine
 10
259.2802939414978
 20
146.1363592147827
 30
0.0
 11
259.2802939414978
 21
167.1590857505798
 31
0.0
  0
TEXT
  5
125
330
1F
100
AcDbEntity
  8
A
  6
FIN
 62
     4
100
AcDbText
 10
257.8801544019709
 20
155.8169770347775
 30
0.0
 40
1.163758076088768
  1
  -
 50
90.0
 41
1.149999999999999
  7
ARIAL
 72
     4
 11
257.808709499619
 21
156.6477224826813
 31
0.0
100
AcDbText
  0
LINE
  5
126
330
1F
100
AcDbEntity
  8
A
  6
VIOLET
 62
     6
100
AcDbLine
 10
77.08333063125609
 20
76.06060409545898
 30
0.0
 11
77.08333063125609
 21
83.06817960739136
 31
0.0
  0
LINE
  5
127
330
1F
100
AcDbEntity
  8
A
  6
JAUNE
 62
     2
100
AcDbLine
 10
252.2727184295654
 20
86.57196736335754
 30
0.0
 11
283.8068082332611
 21
86.57196736335754
 31
0.0
  0
LINE
  5
128
330
1F
100
AcDbEntity
  8
A
  6
JAUNE
 62
     2
100
AcDbLine
 10
252.2727184295654
 20
86.57196736335754
 30
0.0
 11
252.2727184295654
 21
104.0909061431884
 31
0.0
  0
TEXT
  5
129
330
1F
100
AcDbEntity
  8
A
  6
FIN
 62
     4
100
AcDbText
 10
251.1853487958904
 20
99.78148122564519
 30
0.0
 40
1.163758076088768
  1
 +
 50
90.0
 41
1.149999999999999
  7
ARIAL
 72
     4
 11
250.8011339876865
 21
100.5871217286947
 31
0.0
100
AcDbText
  0
LINE
  5
12A
330
1F
100
AcDbEntity
  8
A
  6
JAUNE
 62
     2
100
AcDbLine
 10
150.6628735065459
 20
37.51893877983092
 30
0.0
 11
21.0
 21
37.5
 31
0.0
  0
TEXT
  5
12B
330
1F
100
AcDbEntity
  8
A
  6
FIN
 62
     4
100
AcDbText
 10
97.5538367129261
 20
38.60591818032641
 30
0.0
 40
1.163758076088768
  1
+
 41
1.149999999999999
  7
ARIAL
 72
     4
 11
98.09975515011998
 21
38.99052990465452
 31
0.0
100
AcDbText
  0
LINE
  5
12C
330
1F
100
AcDbEntity
  8
A
  6
JAUNE
 62
     2
100
AcDbLine
 10
157.6704490184784
 20
34.01515102386475
 30
0.0
 11
28.0
 21
34.0
 31
0.0
  0
TEXT
  5
12D
330
1F
100
AcDbEntity
  8
A
  6
FIN
 62
     4
100
AcDbText
 10
97.78914886018528
 20
35.41490033021219
 30
0.0
 40
1.163758076088768
  1
-
 41
1.149999999999999
  7
ARIAL
 72
     4
 11
98.10045017637778
 21
35.48674214868834
 31
0.0
100
AcDbText
  0
LINE
  5
12E
330
1F
100
AcDbEntity
  8
A
  6
JAUNE
 62
     2
100
AcDbLine
 10
157.6704490184784
 20
34.01515102386475
 30
0.0
 11
157.6704490184784
 21
48.03030204772949
 31
0.0
  0
TEXT
  5
12F
330
1F
100
AcDbEntity
  8
A
  6
FIN
 62
     4
100
AcDbText
 10
156.2707063950756
 20
44.2152129755708
 30
0.0
 40
1.163758076088768
  1
-
 50
90.0
 41
1.149999999999999
  7
ARIAL
 72
     4
 11
156.1988645765995
 21
44.52651429176331
 31
0.0
100
AcDbText
  0
LINE
  5
130
330
1F
100
AcDbEntity
  8
A
  6
JAUNE
 62
     2
100
AcDbLine
 10
150.6628735065459
 20
37.51893877983092
 30
0.0
 11
150.6628735065459
 21
48.03030204772949
 31
0.0
  0
TEXT
  5
131
330
1F
100
AcDbEntity
  8
A
  6
FIN
 62
     4
100
AcDbText
 10
149.5759007889952
 20
43.97989414536688
 30
0.0
 40
1.163758076088768
  1
+
 50
90.0
 41
1.149999999999999
  7
ARIAL
 72
     4
 11
149.1912890646671
 21
44.52581258256077
 31
0.0
100
AcDbText
  0
LINE
  5
132
330
1F
100
AcDbEntity
  8
A
  6
JAUNE
 62
     2
100
AcDbLine
 10
164.6780245304108
 20
37.51893877983092
 30
0.0
 11
199.7159020900726
 21
37.51893877983092
 31
0.0
  0
TEXT
  5
133
330
1F
100
AcDbEntity
  8
A
  6
FIN
 62
     4
100
AcDbText
 10
181.3913161242473
 20
38.60631509645059
 30
0.0
 40
1.163758076088768
  1
+ 
 41
1.149999999999999
  7
ARIAL
 72
     4
 11
182.1969566272969
 21
38.99052990465452
 31
0.0
100
AcDbText
  0
LINE
  5
134
330
1F
100
AcDbEntity
  8
A
  6
JAUNE
 62
     2
100
AcDbLine
 10
220.7386286258698
 20
34.01515102386475
 30
0.0
 11
259.2802939414978
 21
34.01515102386475
 31
0.0
  0
TEXT
  5
135
330
1F
100
AcDbEntity
  8
A
  6
FIN
 62
     4
100
AcDbText
 10
233.9216441493152
 20
35.41529724633637
 30
0.0
 40
1.163758076088768
  1
-  
 41
1.149999999999999
  7
ARIAL
 72
     4
 11
234.752389597219
 21
35.48674214868834
 31
0.0
100
AcDbText
  0
LINE
  5
136
330
1F
100
AcDbEntity
  8
A
  6
JAUNE
 62
     2
100
AcDbLine
 10
220.7386286258698
 20
34.01515102386475
 30
0.0
 11
220.7386286258698
 21
48.03030204772949
 31
0.0
  0
TEXT
  5
137
330
1F
100
AcDbEntity
  8
A
  6
FIN
 62
     4
100
AcDbText
 10
219.3384890863429
 20
43.69576884385956
 30
0.0
 40
1.163758076088768
  1
-  
 50
90.0
 41
1.149999999999999
  7
ARIAL
 72
     4
 11
219.267044183991
 21
44.52651429176331
 31
0.0
100
AcDbText
  0
LINE
  5
138
330
1F
100
AcDbEntity
  8
A
  6
JAUNE
 62
     2
100
AcDbLine
 10
259.2802939414978
 20
34.01515102386475
 30
0.0
 11
259.2802939414978
 21
48.03030204772949
 31
0.0
  0
TEXT
  5
139
330
1F
100
AcDbEntity
  8
A
  6
FIN
 62
     4
100
AcDbText
 10
257.8801544019709
 20
43.69576884385956
 30
0.0
 40
1.163758076088768
  1
-  
 50
90.0
 41
1.149999999999999
  7
ARIAL
 72
     4
 11
257.808709499619
 21
44.52651429176331
 31
0.0
100
AcDbText
  0
LINE
  5
13A
330
1F
100
AcDbEntity
  8
A
  6
JAUNE
 62
     2
100
AcDbLine
 10
213.7310531139374
 20
37.51893877983092
 30
0.0
 11
252.2727184295654
 21
37.51893877983092
 31
0.0
  0
TEXT
  5
13B
330
1F
100
AcDbEntity
  8
A
  6
FIN
 62
     4
100
AcDbText
 10
233.6863052702769
 20
38.60631509645059
 30
0.0
 40
1.163758076088768
  1
+  
 41
1.149999999999999
  7
ARIAL
 72
     4
 11
234.7516678391821
 21
38.99052990465452
 31
0.0
100
AcDbText
  0
LINE
  5
13C
330
1F
100
AcDbEntity
  8
A
  6
JAUNE
 62
     2
100
AcDbLine
 10
213.7310531139374
 20
37.51893877983092
 30
0.0
 11
213.7310531139374
 21
48.03030204772949
 31
0.0
  0
TEXT
  5
13D
330
1F
100
AcDbEntity
  8
A
  6
FIN
 62
     4
100
AcDbText
 10
212.6436834802625
 20
43.46044834291943
 30
0.0
 40
1.163758076088768
  1
+  
 50
90.0
 41
1.149999999999999
  7
ARIAL
 72
     4
 11
212.2594686720586
 21
44.52581091182458
 31
0.0
100
AcDbText
  0
LINE
  5
13E
330
1F
100
AcDbEntity
  8
A
  6
JAUNE
 62
     2
100
AcDbLine
 10
252.2727184295654
 20
37.51893877983092
 30
0.0
 11
252.2727184295654
 21
48.03030204772949
 31
0.0
  0
TEXT
  5
13F
330
1F
100
AcDbEntity
  8
A
  6
FIN
 62
     4
100
AcDbText
 10
251.1853487958904
 20
43.46044834291943
 30
0.0
 40
1.163758076088768
  1
+  
 50
90.0
 41
1.149999999999999
  7
ARIAL
 72
     4
 11
250.8011339876865
 21
44.52581091182458
 31
0.0
100
AcDbText
  0
LINE
  5
140
330
1F
100
AcDbEntity
  8
A
  6
JAUNE
 62
     2
100
AcDbLine
 10
206.723477602005
 20
34.01515102386475
 30
0.0
 11
206.723477602005
 21
48.03030204772949
 31
0.0
  0
TEXT
  5
141
330
1F
100
AcDbEntity
  8
A
  6
FIN
 62
     4
100
AcDbText
 10
205.323338062478
 20
42.78662799464865
 30
0.0
 40
1.163758076088768
  1
- 
 50
90.0
 41
1.149999999999999
  7
ARIAL
 72
     4
 11
205.2518931601261
 21
43.35765137669677
 31
0.0
100
AcDbText
  0
LINE
  5
142
330
1F
100
AcDbEntity
  8
A
  6
JAUNE
 62
     2
100
AcDbLine
 10
273.2954449653626
 20
93.57954287528992
 30
0.0
 11
287.3105959892273
 21
93.57954287528992
 31
0.0
  0
LINE
  5
143
330
1F
100
AcDbEntity
  8
A
  6
BLEU
 62
     5
100
AcDbLine
 10
49.05302858352661
 20
153.143934726715
 30
0.0
 11
49.05302858352661
 21
132.7712081603775
 31
0.0
  0
LINE
  5
144
330
1F
100
AcDbEntity
  8
A
  6
JAUNE
 62
     2
100
AcDbLine
 10
266.2878694534301
 20
97.08333063125609
 30
0.0
 11
283.8068082332611
 21
97.08333063125609
 31
0.0
  0
LINE
  5
145
330
1F
100
AcDbEntity
  8
A
  6
JAUNE
 62
     2
100
AcDbLine
 10
273.2954449653626
 20
93.57954287528992
 30
0.0
 11
273.2954449653626
 21
104.0909061431884
 31
0.0
  0
TEXT
  5
146
330
1F
100
AcDbEntity
  8
A
  6
FIN
 62
     4
100
AcDbText
 10
271.8953054258357
 20
99.75567123011593
 30
0.0
 40
1.163758076088768
  1
  -
 50
90.0
 41
1.149999999999999
  7
ARIAL
 72
     4
 11
271.8238605234838
 21
100.5864166780196
 31
0.0
100
AcDbText
  0
LINE
  5
147
330
1F
100
AcDbEntity
  8
A
  6
JAUNE
 62
     2
100
AcDbLine
 10
266.2878694534301
 20
34.01515102386475
 30
0.0
 11
283.8068082332611
 21
34.01515102386475
 31
0.0
  0
LINE
  5
148
330
1F
100
AcDbEntity
  8
A
  6
JAUNE
 62
     2
100
AcDbLine
 10
266.2878694534301
 20
34.01515102386475
 30
0.0
 11
266.2878694534301
 21
48.03030204772949
 31
0.0
  0
TEXT
  5
149
330
1F
100
AcDbEntity
  8
A
  6
FIN
 62
     4
100
AcDbText
 10
265.2004998197552
 20
43.01451075050766
 30
0.0
 40
1.163758076088768
  1
 +
 50
90.0
 41
1.149999999999999
  7
ARIAL
 72
     4
 11
264.8162850115513
 21
43.82015125355717
 31
0.0
100
AcDbText
  0
LINE
  5
14A
330
1F
100
AcDbEntity
  8
A
  6
JAUNE
 62
     2
100
AcDbLine
 10
283.8068082332611
 20
34.01515102386475
 30
0.0
 11
283.8068082332611
 21
86.57196736335754
 31
0.0
  0
LINE
  5
14B
330
1F
100
AcDbEntity
  8
A
  6
JAUNE
 62
     2
100
AcDbLine
 10
273.2954449653626
 20
37.51893877983092
 30
0.0
 11
287.3105959892273
 21
37.51893877983092
 31
0.0
  0
LINE
  5
14C
330
1F
100
AcDbEntity
  8
A
  6
JAUNE
 62
     2
100
AcDbLine
 10
273.2954449653626
 20
37.51893877983092
 30
0.0
 11
273.2954449653626
 21
48.03030204772949
 31
0.0
  0
TEXT
  5
14D
330
1F
100
AcDbEntity
  8
A
  6
FIN
 62
     4
100
AcDbText
 10
271.8953054258357
 20
43.13805899990181
 30
0.0
 40
1.163758076088768
  1
 -
 50
90.0
 41
1.149999999999999
  7
ARIAL
 72
     4
 11
271.8238605234838
 21
43.70908238194994
 31
0.0
100
AcDbText
  0
LINE
  5
14E
330
1F
100
AcDbEntity
  8
A
  6
JAUNE
 62
     2
100
AcDbLine
 10
287.3105959892273
 20
37.51893877983092
 30
0.0
 11
287.3105959892273
 21
90.07575511932371
 31
0.0
  0
LINE
  5
14F
330
1F
100
AcDbEntity
  8
A
  6
BLEU
 62
     5
100
AcDbLine
 10
154.1666612625121
 20
122.259844892479
 30
0.0
 11
154.1666612625121
 21
156.6477224826813
 31
0.0
  0
TEXT
  5
150
330
1F
100
AcDbEntity
  8
A
  6
FIN
 62
     4
100
AcDbText
 10
153.2694144523184
 20
137.5690886300329
 30
0.0
 40
1.163758076088768
  1
126
 50
90.0
 41
1.149999999999999
  7
ARIAL
 72
     4
 11
152.6950768206334
 21
139.1287903857951
 31
0.0
100
AcDbText
  0
LINE
  5
151
330
1F
100
AcDbEntity
  8
A
  6
BLEU
 62
     5
100
AcDbLine
 10
140.1515102386474
 20
121.6098449230194
 30
0.0
 11
153.5166612930527
 21
121.6098449230194
 31
0.0
  0
LINE
  5
152
330
1F
100
AcDbEntity
  8
A
  6
BLEU
 62
     5
100
AcDbLine
 10
35.03787755966187
 20
104.0909061431884
 30
0.0
 11
35.03787755966187
 21
181.1742367744445
 31
0.0
  0
TEXT
  5
153
330
1F
100
AcDbEntity
  8
A
  6
FIN
 62
     4
100
AcDbText
 10
34.14062406652329
 20
120.0445361765817
 30
0.0
 40
1.163758076088768
  1
501
 50
90.0
 41
1.149999999999999
  7
ARIAL
 72
     4
 11
33.56628643483828
 21
121.6042379323439
 31
0.0
100
AcDbText
  0
LINE
  5
154
330
1F
100
AcDbEntity
  8
A
  6
VIOLET
 62
     6
100
AcDbLine
 10
77.08333063125609
 20
90.07575511932371
 30
0.0
 11
77.08333063125609
 21
92.92954290583036
 31
0.0
  0
LINE
  5
155
330
1F
100
AcDbEntity
  8
A
  6
JAUNE
 62
     2
100
AcDbLine
 10
171.6856000423431
 20
34.01515102386475
 30
0.0
 11
171.6856000423431
 21
48.03030204772949
 31
0.0
  0
TEXT
  5
156
330
1F
100
AcDbEntity
  8
A
  6
FIN
 62
     4
100
AcDbText
 10
170.2854605028162
 20
43.25473486218451
 30
0.0
 40
1.163758076088768
  1
- 
 50
90.0
 41
1.149999999999999
  7
ARIAL
 72
     4
 11
170.2140156004643
 21
43.82575824423264
 31
0.0
100
AcDbText
  0
LINE
  5
157
330
1F
100
AcDbEntity
  8
A
  6
JAUNE
 62
     2
100
AcDbLine
 10
199.7159020900726
 20
37.51893877983092
 30
0.0
 11
199.7159020900726
 21
48.03030204772949
 31
0.0
  0
TEXT
  5
158
330
1F
100
AcDbEntity
  8
A
  6
FIN
 62
     4
100
AcDbText
 10
198.6285324563977
 20
44.59682156307343
 30
0.0
 40
1.163758076088768
  1
+ 
 50
90.0
 41
1.149999999999999
  7
ARIAL
 72
     4
 11
198.2443176481938
 21
45.40246206612295
 31
0.0
100
AcDbText
  0
LINE
  5
159
330
1F
100
AcDbEntity
  8
A
  6
BLEU
 62
     5
100
AcDbLine
 10
70.07575511932373
 20
118.1060571670532
 30
0.0
 11
70.07575511932373
 21
128.6174204349518
 31
0.0
  0
LINE
  5
15A
330
1F
100
AcDbEntity
  8
B
  6
FIN
 62
     7
100
AcDbLine
 10
149.9621276855469
 20
101.9886322021483
 30
0.0
 11
149.9621276855469
 21
108.2954559326172
 31
0.0
  0
LINE
  5
15C
330
1F
100
AcDbEntity
  8
B
  6
FIN
 62
     7
100
AcDbLine
 10
149.9621276855469
 20
120.2083282470703
 30
0.0
 11
149.9621276855469
 21
126.5151519775391
 31
0.0
  0
LINE
  5
15D
330
1F
100
AcDbEntity
  8
B
  6
FIN
 62
     7
100
AcDbLine
 10
124.0340881347655
 20
119.5075683593749
 30
0.0
 11
124.0340881347655
 21
125.8143920898437
 31
0.0
  0
LINE
  5
15E
330
1F
100
AcDbEntity
  8
B
  6
FIN
 62
     7
100
AcDbLine
 10
123.3333282470703
 20
101.9886322021483
 30
0.0
 11
123.3333282470703
 21
108.2954559326172
 31
0.0
  0
LINE
  5
15F
330
1F
100
AcDbEntity
  8
B
  6
FIN
 62
     7
100
AcDbLine
 10
67.72796630859375
 20
124.4370346069336
 30
0.0
 11
82.68939208984376
 21
124.4128799438477
 31
0.0
  0
LINE
  5
160
330
1F
100
AcDbEntity
  8
B
  6
FIN
 62
     7
100
AcDbLine
 10
47.65151596069336
 20
142.632568359375
 30
0.0
 11
58.16287994384765
 21
142.632568359375
 31
0.0
  0
LINE
  5
161
330
1F
100
AcDbEntity
  8
B
  6
FIN
 62
     7
100
AcDbLine
 10
47.65151596069336
 20
166.4583282470703
 30
0.0
 11
58.86363983154296
 21
166.4583282470703
 31
0.0
  0
INSERT
  5
16E
330
1F
100
AcDbEntity
  8
B
  6
FIN
 62
     0
100
AcDbBlockReference
 66
     1
  2
004C0_000_0_3_1
 10
14.01515102386475
 20
34.01515102386475
 30
0.0
  0
ATTRIB
  5
16F
330
16E
100
AcDbEntity
  8
B
  6
FIN
 62
     1
100
AcDbText
 10
15.76704490184783
 20
35.30279269003508
 30
0.0
 40
1.629261306524275
  1
-
 41
0.9200000000000001
  7
ARIAL
 11
15.76704490184783
 21
36.11742334329722
 31
0.0
100
AcDbAttribute
  2
$NUM_EQUI
 70
     1
 74
     2
  0
ATTRIB
  5
170
330
16E
100
AcDbEntity
  8
B
  6
FIN
 62
     3
100
AcDbText
 10
9.353103894393417
 20
33.73375807046062
 30
0.0
 40
1.280133883697645
  1
8
 41
0.9200000000000001
  7
ARIAL
 72
     4
 11
9.810616409416979
 21
34.36552946531413
 31
0.0
100
AcDbAttribute
  2
$REPERE
 70
     1
 74
     2
  0
ATTRIB
  5
171
330
16E
100
AcDbEntity
  8
B
  6
FIN
 62
     1
100
AcDbText
 10
8.514507135337675
 20
33.73377979003117
 30
0.0
 40
1.280133883697645
  1
4-19
 41
0.9200000000000001
  7
ARIAL
 72
     4
 11
10.16098983865777
 21
34.36555118488468
 31
0.0
100
AcDbAttribute
  2
$REFTEAB00
 70
     0
 74
     2
  0
SEQEND
  5
173
330
16E
100
AcDbEntity
  8
B
  6
FIN
 62
     0
  0
INSERT
  5
172
330
1F
100
AcDbEntity
  8
B
  6
FIN
 62
     0
100
AcDbBlockReference
 66
     1
  2
004C0_000_0_3_1
 10
14.01515102386475
 20
37.51893877983092
 30
0.0
  0
ATTRIB
  5
174
330
172
100
AcDbEntity
  8
B
  6
FIN
 62
     1
100
AcDbText
 10
15.76704490184783
 20
38.80658211673747
 30
0.0
 40
1.629261306524275
  1
+
 41
0.9200000000000001
  7
ARIAL
 11
15.76704490184783
 21
39.6212127699996
 31
0.0
100
AcDbAttribute
  2
$NUM_EQUI
 70
     1
 74
     2
  0
ATTRIB
  5
175
330
172
100
AcDbEntity
  8
B
  6
FIN
 62
     3
100
AcDbText
 10
9.353103894393417
 20
37.237547497163
 30
0.0
 40
1.280133883697645
  1
7
 41
0.9200000000000001
  7
ARIAL
 72
     4
 11
9.810616409416979
 21
37.86931889201651
 31
0.0
100
AcDbAttribute
  2
$REPERE
 70
     1
 74
     2
  0
ATTRIB
  5
176
330
172
100
AcDbEntity
  8
B
  6
FIN
 62
     1
100
AcDbText
 10
8.514507135337675
 20
37.23756754599735
 30
0.0
 40
1.280133883697645
  1
4-19
 41
0.9200000000000001
  7
ARIAL
 72
     4
 11
10.16098983865777
 21
37.86933894085086
 31
0.0
100
AcDbAttribute
  2
$REFTEAB00
 70
     0
 74
     2
  0
SEQEND
  5
184
330
172
100
AcDbEntity
  8
B
  6
FIN
 62
     0
  0
INSERT
  5
183
330
1F
100
AcDbEntity
  8
B
  6
FIN
 62
     0
100
AcDbBlockReference
 66
     1
  2
006C0_001_0_3_1
 10
14.01515102386475
 20
90.07575511932371
 30
0.0
  0
ATTRIB
  5
185
330
183
100
AcDbEntity
  8
B
  6
FIN
 62
     3
100
AcDbText
 10
8.882966364227279
 20
89.61150457824716
 30
0.0
 40
1.629261306524275
  1
20
 41
0.9200000000000001
  7
ARIAL
 72
     2
 11
11.21212098616542
 21
90.42613523150931
 31
0.0
100
AcDbAttribute
  2
$REPERE
 70
     1
 74
     2
  0
ATTRIB
  5
186
330
183
100
AcDbEntity
  8
B
  6
FIN
 62
     1
100
AcDbText
 10
6.320316386720139
 20
89.61152462708151
 30
0.0
 40
1.629261306524275
  1
4-17
 41
0.9200000000000001
  7
ARIAL
 72
     2
 11
10.51136326789856
 21
90.42615528034366
 31
0.0
100
AcDbAttribute
  2
$REFTEAB00
 70
     0
 74
     2
  0
SEQEND
  5
1E4
330
183
100
AcDbEntity
  8
B
  6
FIN
 62
     0
  0
INSERT
  5
241
330
1F
100
AcDbEntity
  8
B
  6
FIN
 62
     0
100
AcDbBlockReference
 66
     1
  2
X12C0_X01_0_3_1
 10
35.03787755966187
 20
100.5871183872221
 30
0.0
  0
ATTRIB
  5
243
330
241
100
AcDbEntity
  8
B
  6
FIN
 62
     3
100
AcDbText
 10
36.43939132545938
 20
102.1087660287053
 30
0.0
 40
1.86201292174203
  1
32
 41
0.9200000000000001
  7
ARIAL
 11
36.43939132545938
 21
103.0397724895763
 31
0.0
100
AcDbAttribute
  2
$BORNE
 70
     0
 74
     2
  0
ATTRIB
  5
244
330
241
100
AcDbEntity
  8
B
  6
FIN
 62
     3
100
AcDbText
 10
30.70921851456919
 20
102.1087660287053
 30
0.0
 40
1.86201292174203
  1
X2
 41
0.9200000000000001
  7
ARIAL
 72
     2
 11
33.63636379386434
 21
103.0397724895763
 31
0.0
100
AcDbAttribute
  2
$NOMCOMP
 70
     0
 74
     2
  0
SEQEND
  5
246
330
241
100
AcDbEntity
  8
B
  6
FIN
 62
     0
  0
INSERT
  5
245
330
1F
100
AcDbEntity
  8
B
  6
FIN
 62
     0
100
AcDbBlockReference
 66
     1
  2
006C0_001_0_3_1
 10
42.04545307159424
 20
132.1212081909179
 30
0.0
  0
ATTRIB
  5
247
330
245
100
AcDbEntity
  8
B
  6
FIN
 62
     3
100
AcDbText
 10
36.91326757658866
 20
131.6569509668966
 30
0.0
 40
1.629261306524275
  1
19
 41
0.9200000000000001
  7
ARIAL
 72
     2
 11
39.24242219852681
 21
132.4715816201588
 31
0.0
100
AcDbAttribute
  2
$REPERE
 70
     1
 74
     2
  0
ATTRIB
  5
248
330
245
100
AcDbEntity
  8
B
  6
FIN
 62
     1
100
AcDbText
 10
38.55516641478697
 20
126.751676176912
 30
0.0
 40
1.629261306524275
  1
4-19
 41
0.9200000000000001
  7
ARIAL
 72
     2
 11
42.74621329596539
 21
127.5663068301742
 31
0.0
100
AcDbAttribute
  2
$REFTEAB00
 70
     0
 74
     2
  0
SEQEND
  5
25E
330
245
100
AcDbEntity
  8
B
  6
FIN
 62
     0
  0
INSERT
  5
25D
330
1F
100
AcDbEntity
  8
B
  6
FIN
 62
     0
100
AcDbBlockReference
 66
     1
  2
H10C0N_H01_0_3_1
 10
49.05302858352661
 20
160.1515102386473
 30
0.0
  0
ATTRIB
  5
25F
330
25D
100
AcDbEntity
  8
B
  6
FIN
 62
     4
100
AcDbText
 10
44.15256601914625
 20
150.5774101954697
 30
0.0
 40
1.629261306524275
  1
V
 41
0.9200000000000001
  7
ARIAL
 72
     2
 11
45.54924082756043
 21
151.3920408487319
 31
0.0
100
AcDbAttribute
  2
UNITE_UE
 70
     0
 74
     2
  0
ATTRIB
  5
260
330
25D
100
AcDbEntity
  8
B
  6
FIN
 62
     3
100
AcDbText
 10
41.31111405211223
 20
158.0529943165555
 30
0.0
 40
2.094764536959782
  1
H11
 41
0.9200000000000001
  7
ARIAL
 72
     2
 11
46.25001441782115
 21
159.1003765850354
 31
0.0
100
AcDbAttribute
  2
$NOMCOMP
 70
     0
 74
     2
  0
ATTRIB
  5
261
330
25D
100
AcDbEntity
  8
B
  6
FIN
 62
     1
100
AcDbText
 10
49.92897552251815
 20
159.9206409989404
 30
0.0
 40
1.512885498915399
  1
X1
 41
0.9200000000000001
  7
ARIAL
 11
49.92897552251815
 21
160.6770837483981
 31
0.0
100
AcDbAttribute
  2
$PL:1
 70
     0
 74
     2
  0
ATTRIB
  5
262
330
25D
100
AcDbEntity
  8
B
  6
FIN
 62
     1
100
AcDbText
 10
49.92897552251815
 20
152.0371185480166
 30
0.0
 40
1.512885498915399
  1
X2
 41
0.9200000000000001
  7
ARIAL
 11
49.92897552251815
 21
152.7935612974743
 31
0.0
100
AcDbAttribute
  2
$PL:2
 70
     0
 74
     2
  0
ATTRIB
  5
263
330
25D
100
AcDbEntity
  8
B
  6
FIN
 62
     4
100
AcDbText
 10
44.15256601914625
 20
147.9495693784952
 30
0.0
 40
1.629261306524275
  1
V
 41
0.9200000000000001
  7
ARIAL
 72
     2
 11
45.54924082756043
 21
148.7642000317574
 31
0.0
100
AcDbAttribute
  2
TYPE
 70
     1
 74
     2
  0
ATTRIB
  5
264
330
25D
100
AcDbEntity
  8
B
  6
FIN
 62
     1
100
AcDbText
 10
40.30361501667012
 20
150.5774101954697
 30
0.0
 40
1.629261306524275
  1
230
 41
0.9200000000000001
  7
ARIAL
 72
     2
 11
43.79734694957733
 21
151.3920408487319
 31
0.0
100
AcDbAttribute
  2
UE
 70
     0
 74
     2
  0
SEQEND
  5
266
330
25D
100
AcDbEntity
  8
B
  6
FIN
 62
     0
  0
INSERT
  5
265
330
1F
100
AcDbEntity
  8
B
  6
FIN
 62
     0
100
AcDbBlockReference
 66
     1
  2
X12C0_X01_0_3_1
 10
63.06817960739135
 20
100.5871183872221
 30
0.0
  0
ATTRIB
  5
267
330
265
100
AcDbEntity
  8
B
  6
FIN
 62
     3
100
AcDbText
 10
64.46969337318889
 20
102.1087660287053
 30
0.0
 40
1.86201292174203
  1
33
 41
0.9200000000000001
  7
ARIAL
 11
64.46969337318889
 21
103.0397724895763
 31
0.0
100
AcDbAttribute
  2
$BORNE
 70
     0
 74
     2
  0
ATTRIB
  5
268
330
265
100
AcDbEntity
  8
B
  6
FIN
 62
     3
100
AcDbText
 10
58.7395205622987
 20
102.1087660287053
 30
0.0
 40
1.86201292174203
  1
X2
 41
0.9200000000000001
  7
ARIAL
 72
     2
 11
61.66666584159385
 21
103.0397724895763
 31
0.0
100
AcDbAttribute
  2
$NOMCOMP
 70
     0
 74
     2
  0
SEQEND
  5
281
330
265
100
AcDbEntity
  8
B
  6
FIN
 62
     0
  0
INSERT
  5
280
330
1F
100
AcDbEntity
  8
B
  6
FIN
 62
     0
100
AcDbBlockReference
 66
     1
  2
M01P1N_M01_0_3_1
 10
70.07575511932373
 20
118.1060571670532
 30
0.0
  0
ATTRIB
  5
282
330
280
100
AcDbEntity
  8
B
  6
FIN
 62
     4
100
AcDbText
 10
81.07137607670475
 20
114.1380188700103
 30
0.0
 40
1.629261306524275
  1
230 V
 41
0.9200000000000001
  7
ARIAL
 72
     2
 11
86.54356024554273
 21
114.9526495232725
 31
0.0
100
AcDbAttribute
  2
IN
 70
     0
 74
     2
  0
ATTRIB
  5
283
330
280
100
AcDbEntity
  8
B
  6
FIN
 62
     1
100
AcDbText
 10
70.95170205831528
 20
118.4007480712075
 30
0.0
 40
1.512885498915399
  1
U1
 41
0.9200000000000001
  7
ARIAL
 11
70.95170205831528
 21
119.1571908206652
 31
0.0
100
AcDbAttribute
  2
$CP:1
 70
     0
 74
     2
  0
ATTRIB
  5
284
330
280
100
AcDbEntity
  8
B
  6
FIN
 62
     1
100
AcDbText
 10
77.95927757024767
 20
118.4007480712075
 30
0.0
 40
1.512885498915399
  1
U2
 41
0.9200000000000001
  7
ARIAL
 11
77.95927757024767
 21
119.1571908206652
 31
0.0
100
AcDbAttribute
  2
$CP:2
 70
     0
 74
     2
  0
ATTRIB
  5
285
330
280
100
AcDbEntity
  8
B
  6
FIN
 62
     3
100
AcDbText
 10
81.40204204847945
 20
104.0946575283205
 30
0.0
 40
2.094764536959782
  1
M1
 41
0.9200000000000001
  7
ARIAL
 72
     2
 11
85.14203979680042
 21
105.1420397968004
 31
0.0
100
AcDbAttribute
  2
$REPETIQ
 70
     0
 74
     2
  0
SEQEND
  5
292
330
280
100
AcDbEntity
  8
B
  6
FIN
 62
     0
  0
INSERT
  5
291
330
1F
100
AcDbEntity
  8
B
  6
FIN
 62
     0
100
AcDbBlockReference
 66
     1
  2
018C0_001_0_3_1
 10
70.07575511932373
 20
93.57954287528992
 30
0.0
  0
ATTRIB
  5
293
330
291
100
AcDbEntity
  8
B
  6
FIN
 62
     3
100
AcDbText
 10
64.94357296579055
 20
93.11529233421335
 30
0.0
 40
1.629261306524275
  1
15
 41
0.9200000000000001
  7
ARIAL
 72
     2
 11
67.27272758772869
 21
93.92992298747548
 31
0.0
100
AcDbAttribute
  2
$REPERE
 70
     1
 74
     2
  0
ATTRIB
  5
294
330
291
100
AcDbEntity
  8
B
  6
FIN
 62
     1
100
AcDbText
 10
67.28622868688763
 20
88.2100041783392
 30
0.0
 40
1.629261306524275
  1
2-20
 41
0.9200000000000001
  7
ARIAL
 72
     2
 11
71.47727556806604
 21
89.02463483160135
 31
0.0
100
AcDbAttribute
  2
$REFTEAB00
 70
     0
 74
     2
  0
SEQEND
  5
296
330
291
100
AcDbEntity
  8
B
  6
FIN
 62
     0
  0
INSERT
  5
295
330
1F
100
AcDbEntity
  8
B
  6
FIN
 62
     0
100
AcDbBlockReference
 66
     1
  2
X12C0_X01_0_3_1
 10
77.08333063125609
 20
86.57196736335754
 30
0.0
  0
ATTRIB
  5
297
330
295
100
AcDbEntity
  8
B
  6
FIN
 62
     3
100
AcDbText
 10
78.48484439705362
 20
88.09361500484078
 30
0.0
 40
1.86201292174203
  1
34
 41
0.9200000000000001
  7
ARIAL
 11
78.48484439705362
 21
89.02462146571179
 31
0.0
100
AcDbAttribute
  2
$BORNE
 70
     0
 74
     2
  0
ATTRIB
  5
298
330
295
100
AcDbEntity
  8
B
  6
FIN
 62
     3
100
AcDbText
 10
72.75467158616345
 20
88.09361500484078
 30
0.0
 40
1.86201292174203
  1
X2
 41
0.9200000000000001
  7
ARIAL
 72
     2
 11
75.6818168654586
 21
89.02462146571179
 31
0.0
100
AcDbAttribute
  2
$NOMCOMP
 70
     0
 74
     2
  0
SEQEND
  5
29A
330
295
100
AcDbEntity
  8
B
  6
FIN
 62
     0
  0
INSERT
  5
299
330
1F
100
AcDbEntity
  8
B
  6
FIN
 62
     0
100
AcDbBlockReference
 66
     1
  2
X12C0_X01_0_3_1
 10
105.1136326789855
 20
86.57196736335754
 30
0.0
  0
ATTRIB
  5
29B
330
299
100
AcDbEntity
  8
B
  6
FIN
 62
     3
100
AcDbText
 10
106.5151464447831
 20
88.09361500484078
 30
0.0
 40
1.86201292174203
  1
35
 41
0.9200000000000001
  7
ARIAL
 11
106.5151464447831
 21
89.02462146571179
 31
0.0
100
AcDbAttribute
  2
$BORNE
 70
     0
 74
     2
  0
ATTRIB
  5
29C
330
299
100
AcDbEntity
  8
B
  6
FIN
 62
     3
100
AcDbText
 10
100.7849736338929
 20
88.09361500484078
 30
0.0
 40
1.86201292174203
  1
X2
 41
0.9200000000000001
  7
ARIAL
 72
     2
 11
103.7121189131881
 21
89.02462146571179
 31
0.0
100
AcDbAttribute
  2
$NOMCOMP
 70
     0
 74
     2
  0
SEQEND
  5
2B0
330
299
100
AcDbEntity
  8
B
  6
FIN
 62
     0
  0
INSERT
  5
2AF
330
1F
100
AcDbEntity
  8
B
  6
FIN
 62
     0
100
AcDbBlockReference
 66
     1
  2
Y01P2N_Y01_0_3_1
 10
133.1439347267149
 20
121.6098449230194
 30
0.0
  0
ATTRIB
  5
2B1
330
2AF
100
AcDbEntity
  8
B
  6
FIN
 62
     4
100
AcDbText
 10
134.1950683803268
 20
119.7440806161452
 30
0.0
 40
1.629261306524275
  1
24 V
 41
0.9200000000000001
  7
ARIAL
 11
134.1950683803268
 21
120.5587112694074
 31
0.0
100
AcDbAttribute
  2
TYPE DE FREIN
 70
     0
 74
     2
  0
ATTRIB
  5
2B2
330
2AF
100
AcDbEntity
  8
B
  6
FIN
 62
     3
100
AcDbText
 10
135.5966021949589
 20
125.8181509714335
 30
0.0
 40
2.094764536959782
  1
Y1
 41
0.9200000000000001
  7
ARIAL
 11
135.5966021949589
 21
126.8655332399134
 31
0.0
100
AcDbAttribute
  2
$NOMCOMP
 70
     0
 74
     2
  0
ATTRIB
  5
2B3
330
2AF
100
AcDbEntity
  8
B
  6
FIN
 62
     1
100
AcDbText
 10
134.0198816657066
 20
121.9045358271737
 30
0.0
 40
1.512885498915399
  1
1
 41
0.9200000000000001
  7
ARIAL
 11
134.0198816657066
 21
122.6609785766314
 31
0.0
100
AcDbAttribute
  2
$PL:1
 70
     0
 74
     2
  0
ATTRIB
  5
2B4
330
2AF
100
AcDbEntity
  8
B
  6
FIN
 62
     1
100
AcDbText
 10
141.027457177639
 20
121.9045358271737
 30
0.0
 40
1.512885498915399
  1
2
 41
0.9200000000000001
  7
ARIAL
 11
141.027457177639
 21
122.6609785766314
 31
0.0
100
AcDbAttribute
  2
$PL:2
 70
     0
 74
     2
  0
SEQEND
  5
2D4
330
2AF
100
AcDbEntity
  8
B
  6
FIN
 62
     0
  0
INSERT
  5
2D3
330
1F
100
AcDbEntity
  8
B
  6
FIN
 62
     0
100
AcDbBlockReference
 66
     1
  2
Y03C0_Y01_0_3_1
 10
140.1515102386474
 20
104.0909061431884
 30
0.0
 50
270.0
  0
ATTRIB
  5
2D5
330
2D3
100
AcDbEntity
  8
B
  6
FIN
 62
     4
100
AcDbText
 10
129.7014632564783
 20
99.46455707863563
 30
0.0
 40
1.629261306524275
  1
24 v
 50
270.0
 41
0.9200000000000001
  7
ARIAL
 72
     2
 11
130.5160939097405
 21
95.5066301508382
 31
0.0
100
AcDbAttribute
  2
TENSION
 70
     0
 74
     2
  0
ATTRIB
  5
2D6
330
2D3
100
AcDbEntity
  8
B
  6
FIN
 62
     3
100
AcDbText
 10
134.311777241901
 20
93.87486346559603
 30
0.0
 40
1.86201292174203
  1
GA1
 41
0.9200000000000001
  7
ARIAL
 72
     2
 11
139.1003765850354
 21
94.80586992646705
 31
0.0
100
AcDbAttribute
  2
$NOMCOMP
 70
     0
 74
     2
  0
ATTRIB
  5
2D7
330
2D3
100
AcDbEntity
  8
B
  6
FIN
 62
     1
100
AcDbText
 10
131.5115584041552
 20
103.2149592041969
 30
0.0
 40
1.512885498915399
  1
1
 50
270.0
 41
0.9200000000000001
  7
ARIAL
 11
132.268001153613
 21
103.2149592041969
 31
0.0
100
AcDbAttribute
  2
$PL:1
 70
     0
 74
     2
  0
ATTRIB
  5
2D8
330
2D3
100
AcDbEntity
  8
B
  6
FIN
 62
     1
100
AcDbText
 10
140.2710144281813
 20
103.2149592041969
 30
0.0
 40
1.512885498915399
  1
2
 50
270.0
 41
0.9200000000000001
  7
ARIAL
 11
141.027457177639
 21
103.2149592041969
 31
0.0
100
AcDbAttribute
  2
$PL:2
 70
     0
 74
     2
  0
SEQEND
  5
2E5
330
2D3
100
AcDbEntity
  8
B
  6
FIN
 62
     0
  0
INSERT
  5
2E4
330
1F
100
AcDbEntity
  8
B
  6
FIN
 62
     0
100
AcDbBlockReference
 66
     1
  2
008C0_001_0_3_1
 10
154.1666612625121
 20
156.6477224826813
 30
0.0
  0
ATTRIB
  5
2E6
330
2E4
100
AcDbEntity
  8
B
  6
FIN
 62
     3
100
AcDbText
 10
154.6309184865335
 20
159.4507500142763
 30
0.0
 40
1.629261306524275
  1
16
 50
90.0
 41
0.9200000000000001
  7
ARIAL
 11
153.8162878332714
 21
159.4507500142763
 31
0.0
100
AcDbAttribute
  2
$REPERE
 70
     1
 74
     2
  0
ATTRIB
  5
2E7
330
2E4
100
AcDbEntity
  8
B
  6
FIN
 62
     1
100
AcDbText
 10
154.6309184865335
 20
159.4507633801659
 30
0.0
 40
1.629261306524275
  1
2-20
 50
90.0
 41
0.9200000000000001
  7
ARIAL
 11
153.8162878332714
 21
159.4507633801659
 31
0.0
100
AcDbAttribute
  2
$REFTEAB00
 70
     0
 74
     2
  0
SEQEND
  5
313
330
2E4
100
AcDbEntity
  8
B
  6
FIN
 62
     0
  0
INSERT
  5
312
330
1F
100
AcDbEntity
  8
B
  6
FIN
 62
     0
100
AcDbBlockReference
 66
     1
  2
DECTEUR_TEMP___LUM_KNX_0_3
 10
157.6704490184784
 20
76.06060409545898
 30
0.0
  0
ATTRIB
  5
314
330
312
100
AcDbEntity
  8
B
  6
FIN
 62
     3
100
AcDbText
 10
146.318701413727
 20
84.82382487050651
 30
0.0
 40
2.094764536959782
  1
B4
 41
0.9200000000000001
  7
ARIAL
 72
     2
 11
149.6117398529341
 21
85.8712071389864
 31
0.0
100
AcDbAttribute
  2
$ETIQUETTE
 70
     0
 74
     2
  0
ATTRIB
  5
315
330
312
100
AcDbEntity
  8
B
  6
FIN
 62
     1
100
AcDbText
 10
150.0951183318642
 20
50.68371444988356
 30
0.0
 40
1.512885498915399
  1
+
 41
0.9200000000000001
  7
ARIAL
 72
     4
 11
150.6628735065459
 21
51.1837096915101
 31
0.0
100
AcDbAttribute
  2
$PL:1
 70
     0
 74
     2
  0
ATTRIB
  5
316
330
312
100
AcDbEntity
  8
B
  6
FIN
 62
     1
100
AcDbText
 10
157.3466956496382
 20
51.09031532749111
 30
0.0
 40
1.512885498915399
  1
-
 41
0.9200000000000001
  7
ARIAL
 72
     4
 11
157.6704490184784
 21
51.1837096915101
 31
0.0
100
AcDbAttribute
  2
$PL:2
 70
     0
 74
     2
  0
ATTRIB
  5
317
330
312
100
AcDbEntity
  8
B
  6
FIN
 62
     1
100
AcDbText
 10
164.1102693557291
 20
50.68371444988356
 30
0.0
 40
1.512885498915399
  1
+
 41
0.9200000000000001
  7
ARIAL
 72
     4
 11
164.6780245304108
 21
51.1837096915101
 31
0.0
100
AcDbAttribute
  2
$PL:3
 70
     0
 74
     2
  0
ATTRIB
  5
318
330
312
100
AcDbEntity
  8
B
  6
FIN
 62
     1
100
AcDbText
 10
171.3618466735028
 20
51.09031532749111
 30
0.0
 40
1.512885498915399
  1
-
 41
0.9200000000000001
  7
ARIAL
 72
     4
 11
171.6856000423431
 21
51.1837096915101
 31
0.0
100
AcDbAttribute
  2
$PL:4
 70
     0
 74
     2
  0
ATTRIB
  5
319
330
312
100
AcDbEntity
  8
B
  6
FIN
 62
     1
100
AcDbText
 10
145.1121608868044
 20
78.74976788110782
 30
0.0
 40
1.629261306524275
  1
5WG1252-2AB13
 41
0.9200000000000001
  7
ARIAL
 72
     2
 11
161.5246235695749
 21
79.56439853436996
 31
0.0
100
AcDbAttribute
  2
CODE
 70
     0
 74
     2
  0
ATTRIB
  5
31A
330
312
100
AcDbEntity
  8
B
  6
FIN
 62
     1
100
AcDbText
 10
144.3912756504258
 20
81.90316215899885
 30
0.0
 40
1.629261306524275
  1
SIEMENS
 41
0.9200000000000001
  7
ARIAL
 72
     2
 11
153.8162744673819
 21
82.717792812261
 31
0.0
100
AcDbAttribute
  2
FABRICANT
 70
     0
 74
     2
  0
ATTRIB
  5
31B
330
312
100
AcDbEntity
  8
B
  6
FIN
 62
     1
100
AcDbText
 10
130.6686582931641
 20
53.87287347715894
 30
0.0
 40
1.629261306524275
  1
@I449.@IM
 41
0.9200000000000001
  7
ARIAL
 72
     2
 11
141.9034041166304
 21
54.68750413042108
 31
0.0
100
AcDbAttribute
  2
SYMBOLE
 70
     1
 74
     2
  0
SEQEND
  5
355
330
312
100
AcDbEntity
  8
B
  6
FIN
 62
     0
  0
INSERT
  5
354
330
1F
100
AcDbEntity
  8
B
  6
FIN
 62
     0
100
AcDbBlockReference
 66
     1
  2
DECTEUR_TEMP___LUM_2_KNX_0
 10
206.723477602005
 20
76.06060409545898
 30
0.0
  0
ATTRIB
  5
356
330
354
100
AcDbEntity
  8
B
  6
FIN
 62
     3
100
AcDbText
 10
195.3717299972536
 20
86.22534531924882
 30
0.0
 40
2.094764536959782
  1
B3
 41
0.9200000000000001
  7
ARIAL
 72
     2
 11
198.6647684364607
 21
87.27272758772871
 31
0.0
100
AcDbAttribute
  2
$ETIQUETTE
 70
     0
 74
     2
  0
ATTRIB
  5
357
330
354
100
AcDbEntity
  8
B
  6
FIN
 62
     1
100
AcDbText
 10
199.1481469153909
 20
50.68372113282834
 30
0.0
 40
1.512885498915399
  1
+
 41
0.9200000000000001
  7
ARIAL
 72
     4
 11
199.7159020900726
 21
51.18371637445489
 31
0.0
100
AcDbAttribute
  2
$PL:1
 70
     0
 74
     2
  0
ATTRIB
  5
358
330
354
100
AcDbEntity
  8
B
  6
FIN
 62
     1
100
AcDbText
 10
206.3997242331647
 20
51.09032201043589
 30
0.0
 40
1.512885498915399
  1
-
 41
0.9200000000000001
  7
ARIAL
 72
     4
 11
206.723477602005
 21
51.18371637445489
 31
0.0
100
AcDbAttribute
  2
$PL:2
 70
     0
 74
     2
  0
ATTRIB
  5
359
330
354
100
AcDbEntity
  8
B
  6
FIN
 62
     1
100
AcDbText
 10
213.1632979392557
 20
50.68372113282834
 30
0.0
 40
1.512885498915399
  1
+
 41
0.9200000000000001
  7
ARIAL
 72
     4
 11
213.7310531139374
 21
51.18371637445489
 31
0.0
100
AcDbAttribute
  2
$PL:3
 70
     0
 74
     2
  0
ATTRIB
  5
35A
330
354
100
AcDbEntity
  8
B
  6
FIN
 62
     1
100
AcDbText
 10
220.4148752570296
 20
51.09032201043589
 30
0.0
 40
1.512885498915399
  1
-
 41
0.9200000000000001
  7
ARIAL
 72
     4
 11
220.7386286258698
 21
51.18371637445489
 31
0.0
100
AcDbAttribute
  2
$PL:4
 70
     0
 74
     2
  0
ATTRIB
  5
35B
330
354
100
AcDbEntity
  8
B
  6
FIN
 62
     1
100
AcDbText
 10
194.165189470331
 20
79.45052142253416
 30
0.0
 40
1.629261306524275
  1
5WG1254-3EY01
 41
0.9200000000000001
  7
ARIAL
 72
     2
 11
210.5776521531014
 21
80.26515207579631
 31
0.0
100
AcDbAttribute
  2
CODE
 70
     0
 74
     2
  0
ATTRIB
  5
35C
330
354
100
AcDbEntity
  8
B
  6
FIN
 62
     1
100
AcDbText
 10
194.1450644583234
 20
82.60392238337002
 30
0.0
 40
1.629261306524275
  1
SIEMENS
 41
0.9200000000000001
  7
ARIAL
 72
     2
 11
203.5700632752794
 21
83.41855303663216
 31
0.0
100
AcDbAttribute
  2
FABRICANT
 70
     0
 74
     2
  0
ATTRIB
  5
35D
330
354
100
AcDbEntity
  8
B
  6
FIN
 62
     1
100
AcDbText
 10
179.7216868766908
 20
53.87287347715894
 30
0.0
 40
1.629261306524275
  1
@I449.@IM
 41
0.9200000000000001
  7
ARIAL
 72
     2
 11
190.9564327001572
 21
54.68750413042108
 31
0.0
100
AcDbAttribute
  2
SYMBOLE
 70
     1
 74
     2
  0
SEQEND
  5
383
330
354
100
AcDbEntity
  8
B
  6
FIN
 62
     0
  0
INSERT
  5
382
330
1F
100
AcDbEntity
  8
B
  6
FIN
 62
     0
100
AcDbBlockReference
 66
     1
  2
INTERRUPTEUR_KNX_0_3_1
 10
259.2802939414978
 20
76.06060409545898
 30
0.0
  0
ATTRIB
  5
384
330
382
100
AcDbEntity
  8
B
  6
FIN
 62
     3
100
AcDbText
 10
239.519437010182
 20
84.8238315534513
 30
0.0
 40
2.094764536959782
  1
S2
 41
0.9200000000000001
  7
ARIAL
 72
     2
 11
242.812475449389
 21
85.87121382193119
 31
0.0
100
AcDbAttribute
  2
$ETIQUETTE
 70
     0
 74
     2
  0
ATTRIB
  5
385
330
382
100
AcDbEntity
  8
B
  6
FIN
 62
     1
100
AcDbText
 10
251.7049632548837
 20
50.68371444988356
 30
0.0
 40
1.512885498915399
  1
+
 41
0.9200000000000001
  7
ARIAL
 72
     4
 11
252.2727184295654
 21
51.1837096915101
 31
0.0
100
AcDbAttribute
  2
$PL:1
 70
     0
 74
     2
  0
ATTRIB
  5
386
330
382
100
AcDbEntity
  8
B
  6
FIN
 62
     1
100
AcDbText
 10
258.9565405726576
 20
51.09031532749111
 30
0.0
 40
1.512885498915399
  1
-
 41
0.9200000000000001
  7
ARIAL
 72
     4
 11
259.2802939414978
 21
51.1837096915101
 31
0.0
100
AcDbAttribute
  2
$PL:2
 70
     0
 74
     2
  0
ATTRIB
  5
387
330
382
100
AcDbEntity
  8
B
  6
FIN
 62
     1
100
AcDbText
 10
265.7201142787485
 20
50.68371444988356
 30
0.0
 40
1.512885498915399
  1
+
 41
0.9200000000000001
  7
ARIAL
 72
     4
 11
266.2878694534301
 21
51.1837096915101
 31
0.0
100
AcDbAttribute
  2
$PL:3
 70
     0
 74
     2
  0
ATTRIB
  5
388
330
382
100
AcDbEntity
  8
B
  6
FIN
 62
     1
100
AcDbText
 10
272.9716915965224
 20
51.09031532749111
 30
0.0
 40
1.512885498915399
  1
-
 41
0.9200000000000001
  7
ARIAL
 72
     4
 11
273.2954449653626
 21
51.1837096915101
 31
0.0
100
AcDbAttribute
  2
$PL:4
 70
     0
 74
     2
  0
ATTRIB
  5
389
330
382
100
AcDbEntity
  8
B
  6
FIN
 62
     1
100
AcDbText
 10
238.3129232150388
 20
77.3482541153103
 30
0.0
 40
1.629261306524275
  1
5WG1245-2AB11
 41
0.9200000000000001
  7
ARIAL
 72
     2
 11
254.7253858978093
 21
78.16288476857244
 31
0.0
100
AcDbAttribute
  2
CODE
 70
     0
 74
     2
  0
ATTRIB
  5
38A
330
382
100
AcDbEntity
  8
B
  6
FIN
 62
     1
100
AcDbText
 10
238.9935584274024
 20
81.20240861757249
 30
0.0
 40
1.629261306524275
  1
SIEMENS
 41
0.9200000000000001
  7
ARIAL
 72
     2
 11
248.4185572443585
 21
82.01703927083462
 31
0.0
100
AcDbAttribute
  2
FABRICANT
 70
     0
 74
     2
  0
ATTRIB
  5
38B
330
382
100
AcDbEntity
  8
B
  6
FIN
 62
     1
100
AcDbText
 10
232.2785032161836
 20
53.87287347715894
 30
0.0
 40
1.629261306524275
  1
@I449.@IM
 41
0.9200000000000001
  7
ARIAL
 72
     2
 11
243.51324903965
 21
54.68750413042108
 31
0.0
100
AcDbAttribute
  2
SYMBOLE
 70
     1
 74
     2
  0
SEQEND
  5
38D
330
382
100
AcDbEntity
  8
B
  6
FIN
 62
     0
  0
INSERT
  5
38C
330
1F
100
AcDbEntity
  8
B
  6
FIN
 62
     0
100
AcDbBlockReference
 66
     1
  2
INTERRUPTEUR_KNX_0_3_1
 10
259.2802939414978
 20
132.1212081909179
 30
0.0
  0
ATTRIB
  5
38E
330
38C
100
AcDbEntity
  8
B
  6
FIN
 62
     3
100
AcDbText
 10
240.2202106004429
 20
120.5624626545395
 30
0.0
 40
2.094764536959782
  1
S1
 41
0.9200000000000001
  7
ARIAL
 72
     2
 11
243.51324903965
 21
121.6098449230194
 31
0.0
100
AcDbAttribute
  2
$ETIQUETTE
 70
     0
 74
     2
  0
ATTRIB
  5
38F
330
38C
100
AcDbEntity
  8
B
  6
FIN
 62
     1
100
AcDbText
 10
251.7049632548837
 20
106.7443185453424
 30
0.0
 40
1.512885498915399
  1
+
 41
0.9200000000000001
  7
ARIAL
 72
     4
 11
252.2727184295654
 21
107.2443137869689
 31
0.0
100
AcDbAttribute
  2
$PL:1
 70
     0
 74
     2
  0
ATTRIB
  5
390
330
38C
100
AcDbEntity
  8
B
  6
FIN
 62
     1
100
AcDbText
 10
258.9565405726576
 20
107.15091942295
 30
0.0
 40
1.512885498915399
  1
-
 41
0.9200000000000001
  7
ARIAL
 72
     4
 11
259.2802939414978
 21
107.2443137869689
 31
0.0
100
AcDbAttribute
  2
$PL:2
 70
     0
 74
     2
  0
ATTRIB
  5
391
330
38C
100
AcDbEntity
  8
B
  6
FIN
 62
     1
100
AcDbText
 10
265.7201142787485
 20
106.7443185453424
 30
0.0
 40
1.512885498915399
  1
+
 41
0.9200000000000001
  7
ARIAL
 72
     4
 11
266.2878694534301
 21
107.2443137869689
 31
0.0
100
AcDbAttribute
  2
$PL:3
 70
     0
 74
     2
  0
ATTRIB
  5
392
330
38C
100
AcDbEntity
  8
B
  6
FIN
 62
     1
100
AcDbText
 10
272.9716915965224
 20
107.15091942295
 30
0.0
 40
1.512885498915399
  1
-
 41
0.9200000000000001
  7
ARIAL
 72
     4
 11
273.2954449653626
 21
107.2443137869689
 31
0.0
100
AcDbAttribute
  2
$PL:4
 70
     0
 74
     2
  0
ATTRIB
  5
393
330
38C
100
AcDbEntity
  8
B
  6
FIN
 62
     1
100
AcDbText
 10
227.1007863568795
 20
115.1891592065671
 30
0.0
 40
1.629261306524275
  1
5WG1245-2AB11
 41
0.9200000000000001
  7
ARIAL
 72
     2
 11
243.51324903965
 21
116.0037898598293
 31
0.0
100
AcDbAttribute
  2
CODE
 70
     0
 74
     2
  0
ATTRIB
  5
394
330
38C
100
AcDbEntity
  8
B
  6
FIN
 62
     1
100
AcDbText
 10
234.0882502226939
 20
117.6417999430318
 30
0.0
 40
1.629261306524275
  1
SIEMENS
 41
0.9200000000000001
  7
ARIAL
 72
     2
 11
243.51324903965
 21
118.456430596294
 31
0.0
100
AcDbAttribute
  2
FABRICANT
 70
     0
 74
     2
  0
ATTRIB
  5
395
330
38C
100
AcDbEntity
  8
B
  6
FIN
 62
     1
100
AcDbText
 10
240.7198994228216
 20
107.4808234702635
 30
0.0
 40
1.629261306524275
  1
x 8
 41
0.9200000000000001
  7
ARIAL
 72
     2
 11
243.51324903965
 21
108.2954541235257
 31
0.0
100
AcDbAttribute
  2
SERIE
 70
     1
 74
     2
  0
ATTRIB
  5
396
330
38C
100
AcDbEntity
  8
B
  6
FIN
 62
     1
100
AcDbText
 10
232.2785032161836
 20
109.9334775726178
 30
0.0
 40
1.629261306524275
  1
@I449.@IM
 41
0.9200000000000001
  7
ARIAL
 72
     2
 11
243.51324903965
 21
110.74810822588
 31
0.0
100
AcDbAttribute
  2
SYMBOLE
 70
     1
 74
     2
  0
SEQEND
  5
3CC
330
38C
100
AcDbEntity
  8
B
  6
FIN
 62
     0
  0
INSERT
  5
3CB
330
1F
100
AcDbEntity
  8
B
  6
FIN
 62
     0
100
AcDbBlockReference
 66
     1
  2
DECTEUR_MOUVEMENT_KNX_0_3_
 10
259.2802939414978
 20
195.1893877983093
 30
0.0
  0
ATTRIB
  5
3CD
330
3CB
100
AcDbEntity
  8
B
  6
FIN
 62
     3
100
AcDbText
 10
240.220237332222
 20
188.5359371007498
 30
0.0
 40
2.094764536959782
  1
B1
 41
0.9200000000000001
  7
ARIAL
 72
     2
 11
243.5132757714291
 21
189.5833193692297
 31
0.0
100
AcDbAttribute
  2
$ETIQUETTE
 70
     0
 74
     2
  0
ATTRIB
  5
3CE
330
3CB
100
AcDbEntity
  8
B
  6
FIN
 62
     1
100
AcDbText
 10
251.7049632548837
 20
169.8125048356785
 30
0.0
 40
1.512885498915399
  1
+
 41
0.9200000000000001
  7
ARIAL
 72
     4
 11
252.2727184295654
 21
170.312500077305
 31
0.0
100
AcDbAttribute
  2
$PL:1
 70
     0
 74
     2
  0
ATTRIB
  5
3CF
330
3CB
100
AcDbEntity
  8
B
  6
FIN
 62
     1
100
AcDbText
 10
258.9565405726576
 20
170.2191057132861
 30
0.0
 40
1.512885498915399
  1
-
 41
0.9200000000000001
  7
ARIAL
 72
     4
 11
259.2802939414978
 21
170.312500077305
 31
0.0
100
AcDbAttribute
  2
$PL:2
 70
     0
 74
     2
  0
ATTRIB
  5
3D0
330
3CB
100
AcDbEntity
  8
B
  6
FIN
 62
     1
100
AcDbText
 10
265.7201142787485
 20
169.8125048356785
 30
0.0
 40
1.512885498915399
  1
+
 41
0.9200000000000001
  7
ARIAL
 72
     4
 11
266.2878694534301
 21
170.312500077305
 31
0.0
100
AcDbAttribute
  2
$PL:3
 70
     0
 74
     2
  0
ATTRIB
  5
3D1
330
3CB
100
AcDbEntity
  8
B
  6
FIN
 62
     1
100
AcDbText
 10
272.9716915965224
 20
170.2191057132861
 30
0.0
 40
1.512885498915399
  1
-
 41
0.9200000000000001
  7
ARIAL
 72
     4
 11
273.2954449653626
 21
170.312500077305
 31
0.0
100
AcDbAttribute
  2
$PL:4
 70
     0
 74
     2
  0
ATTRIB
  5
3D2
330
3CB
100
AcDbEntity
  8
B
  6
FIN
 62
     1
100
AcDbText
 10
227.8015332153609
 20
181.0603663455534
 30
0.0
 40
1.629261306524275
  1
5WG1255-2AB12
 41
0.9200000000000001
  7
ARIAL
 72
     2
 11
244.2139958981313
 21
181.8749969988156
 31
0.0
100
AcDbAttribute
  2
CODE
 70
     0
 74
     2
  0
ATTRIB
  5
3D3
330
3CB
100
AcDbEntity
  8
B
  6
FIN
 62
     1
100
AcDbText
 10
234.0882502226939
 20
185.6153011210211
 30
0.0
 40
1.629261306524275
  1
SIEMENS
 41
0.9200000000000001
  7
ARIAL
 72
     2
 11
243.51324903965
 21
186.4299317742832
 31
0.0
100
AcDbAttribute
  2
FABRICANT
 70
     0
 74
     2
  0
ATTRIB
  5
3D4
330
3CB
100
AcDbEntity
  8
B
  6
FIN
 62
     1
100
AcDbText
 10
232.2785032161836
 20
173.0016571800092
 30
0.0
 40
1.629261306524275
  1
@I449.@IM
 41
0.9200000000000001
  7
ARIAL
 72
     2
 11
243.51324903965
 21
173.8162878332714
 31
0.0
100
AcDbAttribute
  2
SYMBOLE
 70
     1
 74
     2
  0
SEQEND
  5
3E4
330
3CB
100
AcDbEntity
  8
B
  6
FIN
 62
     0
  0
TEXT
  5
3D5
330
1F
100
AcDbEntity
  8
B
  6
FIN
 62
     7
100
AcDbText
 10
103.7121255961327
 20
27.00757467656428
 30
0.0
 40
1.629261306524275
  1
GACHE ELECTRIQUE
 41
1.149999999999999
  7
ARIAL
100
AcDbText
  0
TEXT
  5
3D6
330
1F
100
AcDbEntity
  8
B
  6
FIN
 62
     7
100
AcDbText
 10
16.81818189693217
 20
27.18276473265706
 30
0.0
 40
1.629261306524275
  1
LAMPE CHAMBRE
 41
1.149999999999999
  7
ARIAL
100
AcDbText
  0
TEXT
  5
3D7
330
1F
100
AcDbEntity
  8
B
  6
FIN
 62
     7
100
AcDbText
 10
51.15530257369528
 20
27.00757467656428
 30
0.0
 40
1.629261306524275
  1
VENTILATION
 41
1.149999999999999
  7
ARIAL
100
AcDbText
  0
TEXT
  5
3D8
330
1F
100
AcDbEntity
  8
B
  6
FIN
 62
     7
100
AcDbText
 10
77.08333731420089
 20
26.83238545583959
 30
0.0
 40
1.629261306524275
  1
VENTOUSE
 41
1.149999999999999
  7
ARIAL
100
AcDbText
  0
TEXT
  5
3D9
330
1F
100
AcDbEntity
  8
B
  6
FIN
 62
     7
100
AcDbText
 10
163.2765040816684
 20
121.0842780962134
 30
0.0
 40
1.629261306524275
  1
VENTOUSE
 41
1.149999999999999
  7
ARIAL
100
AcDbText
  0
TEXT
  5
3DA
330
1F
100
AcDbEntity
  8
B
  6
FIN
 62
     7
100
AcDbText
 10
160.4734765500734
 20
103.5653393163824
 30
0.0
 40
1.629261306524275
  1
GACHE ELECTRIQUE
 41
1.149999999999999
  7
ARIAL
100
AcDbText
  0
TEXT
  5
3DB
330
1F
100
AcDbEntity
  8
B
  6
FIN
 62
     7
100
AcDbText
 10
259.2802939414978
 20
119.1571908206652
 30
0.0
 40
1.396509691306523
  1
x  8
 41
1.149999999999999
  7
ARIAL
100
AcDbText
  0
TEXT
  5
3DC
330
1F
100
AcDbEntity
  8
B
  6
FIN
 62
     7
100
AcDbText
 10
257.8787734927554
 20
61.69507295940864
 30
0.0
 40
1.396509691306523
  1
x 6
 41
1.149999999999999
  7
ARIAL
100
AcDbText
  0
TEXT
  5
3DD
330
1F
100
AcDbEntity
  8
B
  6
FIN
 62
     7
100
AcDbText
 10
121.2310510100742
 20
127.9166668935254
 30
0.0
 40
1.86201292174203
  1
W15
 41
1.149999999999999
  7
ARIAL
100
AcDbText
  0
TEXT
  5
3DE
330
1F
100
AcDbEntity
  8
B
  6
FIN
 62
     7
100
AcDbText
 10
146.4583255262086
 20
127.9166668935254
 30
0.0
 40
1.86201292174203
  1
W15
 41
1.149999999999999
  7
ARIAL
100
AcDbText
  0
TEXT
  5
3DF
330
1F
100
AcDbEntity
  8
B
  6
FIN
 62
     7
100
AcDbText
 10
121.2310510100742
 20
109.6969745722681
 30
0.0
 40
1.86201292174203
  1
W16
 41
1.149999999999999
  7
ARIAL
100
AcDbText
  0
TEXT
  5
3E0
330
1F
100
AcDbEntity
  8
B
  6
FIN
 62
     7
100
AcDbText
 10
145.7575653018374
 20
109.6969745722681
 30
0.0
 40
1.86201292174203
  1
W16
 41
1.149999999999999
  7
ARIAL
100
AcDbText
  0
TEXT
  5
3E1
330
1F
100
AcDbEntity
  8
B
  6
FIN
 62
     7
100
AcDbText
 10
51.85605611512166
 20
167.859845974951
 30
0.0
 40
1.86201292174203
  1
W13
 41
1.149999999999999
  7
ARIAL
100
AcDbText
  0
TEXT
  5
3E2
330
1F
100
AcDbEntity
  8
B
  6
FIN
 62
     7
100
AcDbText
 10
51.85605611512166
 20
144.0341052734483
 30
0.0
 40
1.86201292174203
  1
W13
 41
1.149999999999999
  7
ARIAL
100
AcDbText
  0
TEXT
  5
3E3
330
1F
100
AcDbEntity
  8
B
  6
FIN
 62
     7
100
AcDbText
 10
81.28787192864866
 20
125.1136393619304
 30
0.0
 40
1.86201292174203
  1
W14
 41
1.149999999999999
  7
ARIAL
100
AcDbText
  0
CIRCLE
  5
472
330
1F
100
AcDbEntity
  8
A
  6
SYMBOL_C
 62
     4
100
AcDbCircle
 10
49.0530285835266
 20
75.35984721256022
 30
0.0
 40
0.7007568828987587
  0
CIRCLE
  5
474
330
1F
100
AcDbEntity
  8
A
  6
SYMBOL_C
 62
     4
100
AcDbCircle
 10
63.06817960739137
 20
75.35984721256022
 30
0.0
 40
0.7007568828987587
  0
CIRCLE
  5
476
330
1F
100
AcDbEntity
  8
A
  6
SYMBOL_C
 62
     4
100
AcDbCircle
 10
77.08333063125609
 20
75.35984721256022
 30
0.0
 40
0.7007568828987587
  0
CIRCLE
  5
477
330
1F
100
AcDbEntity
  8
A
  6
SYMBOL_C
 62
     4
100
AcDbCircle
 10
91.09848165512085
 20
75.35984721256022
 30
0.0
 40
0.7007568828987587
  0
CIRCLE
  5
478
330
1F
100
AcDbEntity
  8
A
  6
SYMBOL_C
 62
     4
100
AcDbCircle
 10
105.1136326789856
 20
75.35984721256022
 30
0.0
 40
0.7007568828987587
  0
CIRCLE
  5
47A
330
1F
100
AcDbEntity
  8
A
  6
SYMBOL_C
 62
     4
100
AcDbCircle
 10
119.1287837028503
 20
75.35984721256022
 30
0.0
 40
0.7007568828987587
  0
CIRCLE
  5
47B
330
1F
100
AcDbEntity
  8
A
  6
SYMBOL_C
 62
     4
100
AcDbCircle
 10
21.02272653579712
 20
48.73106060136445
 30
0.0
 40
0.7007568828987587
  0
CIRCLE
  5
47C
330
1F
100
AcDbEntity
  8
A
  6
SYMBOL_C
 62
     4
100
AcDbCircle
 10
28.03030204772949
 20
48.73106060136445
 30
0.0
 40
0.7007568828987587
  0
CIRCLE
  5
47D
330
1F
100
AcDbEntity
  8
A
  6
SYMBOL_C
 62
     4
100
AcDbCircle
 10
21.02272653579712
 20
75.35984721256022
 30
0.0
 40
0.7007568828987587
  0
CIRCLE
  5
47F
330
1F
100
AcDbEntity
  8
A
  6
SYMBOL_C
 62
     4
100
AcDbCircle
 10
35.03787755966187
 20
75.35984721256022
 30
0.0
 40
0.7007568828987587
  0
LWPOLYLINE
  5
480
330
1F
100
AcDbEntity
  8
A
  6
FIN
 62
     7
100
AcDbPolyline
 90
        5
 70
     0
 43
0.0
 10
14.01515102386475
 20
76.06060409545898
 10
126.1363592147826
 20
76.06060409545898
 10
126.1363592147826
 20
48.03030204772951
 10
14.01515102386475
 20
48.03030204772951
 10
14.01515102386475
 20
76.06060409545898
  0
LINE
  5
481
330
1F
100
AcDbEntity
  8
A
  6
MOYEN
 62
     4
100
AcDbLine
 10
21.02272653579712
 20
66.60037782264476
 30
0.0
 11
26.2784081697464
 21
66.60037782264476
 31
0.0
  0
LINE
  5
482
330
1F
100
AcDbEntity
  8
A
  6
MOYEN
 62
     4
100
AcDbLine
 10
29.82599594584007
 20
66.60037782264476
 30
0.0
 11
26.2784081697464
 21
64.84848394466166
 31
0.0
  0
LINE
  5
483
330
1F
100
AcDbEntity
  8
A
  6
MOYEN
 62
     4
100
AcDbLine
 10
29.78219592571258
 20
66.60037782264476
 30
0.0
 11
35.03787755966187
 21
66.60037782264476
 31
0.0
  0
LINE
  5
484
330
1F
100
AcDbEntity
  8
A
  6
MOYEN
 62
     4
100
AcDbLine
 10
21.02272653579712
 20
66.60037949338096
 30
0.0
 11
21.02272653579712
 21
69.05302858352661
 31
0.0
  0
LINE
  5
485
330
1F
100
AcDbEntity
  8
A
  6
MOYEN
 62
     4
100
AcDbLine
 10
35.03787755966187
 20
66.60037782264476
 30
0.0
 11
35.03787755966187
 21
69.05302858352661
 31
0.0
  0
LINE
  5
486
330
1F
100
AcDbEntity
  8
A
  6
MOYEN
 62
     4
100
AcDbLine
 10
49.0530285835266
 20
66.60037782264476
 30
0.0
 11
54.30871021747589
 21
66.60037782264476
 31
0.0
  0
LINE
  5
487
330
1F
100
AcDbEntity
  8
A
  6
MOYEN
 62
     4
100
AcDbLine
 10
77.08333063125609
 20
66.60037782264476
 30
0.0
 11
82.33901226520538
 21
66.60037782264476
 31
0.0
  0
LINE
  5
488
330
1F
100
AcDbEntity
  8
A
  6
MOYEN
 62
     4
100
AcDbLine
 10
105.1136326789856
 20
66.60037782264476
 30
0.0
 11
110.3693143129348
 21
66.60037782264476
 31
0.0
  0
LINE
  5
489
330
1F
100
AcDbEntity
  8
A
  6
MOYEN
 62
     4
100
AcDbLine
 10
57.85629799356958
 20
66.60037782264476
 30
0.0
 11
54.30871021747589
 21
64.84848394466166
 31
0.0
  0
LINE
  5
48A
330
1F
100
AcDbEntity
  8
A
  6
MOYEN
 62
     4
100
AcDbLine
 10
85.88660004129906
 20
66.60037782264476
 30
0.0
 11
82.33901226520538
 21
64.84848394466166
 31
0.0
  0
LINE
  5
48B
330
1F
100
AcDbEntity
  8
A
  6
MOYEN
 62
     4
100
AcDbLine
 10
113.9169020890285
 20
66.60037782264476
 30
0.0
 11
110.3693143129348
 21
64.84848394466166
 31
0.0
  0
LINE
  5
48C
330
1F
100
AcDbEntity
  8
A
  6
MOYEN
 62
     4
100
AcDbLine
 10
57.81249797344209
 20
66.60037782264476
 30
0.0
 11
63.06817960739137
 21
66.60037782264476
 31
0.0
  0
LINE
  5
48D
330
1F
100
AcDbEntity
  8
A
  6
MOYEN
 62
     4
100
AcDbLine
 10
85.84280002117157
 20
66.60037782264476
 30
0.0
 11
91.09848165512085
 21
66.60037782264476
 31
0.0
  0
LINE
  5
48E
330
1F
100
AcDbEntity
  8
A
  6
MOYEN
 62
     4
100
AcDbLine
 10
113.873102068901
 20
66.60037782264476
 30
0.0
 11
119.1287837028503
 21
66.60037782264476
 31
0.0
  0
LINE
  5
48F
330
1F
100
AcDbEntity
  8
A
  6
MOYEN
 62
     4
100
AcDbLine
 10
49.0530285835266
 20
66.60037949338096
 30
0.0
 11
49.0530285835266
 21
69.05302858352661
 31
0.0
  0
LINE
  5
490
330
1F
100
AcDbEntity
  8
A
  6
MOYEN
 62
     4
100
AcDbLine
 10
77.08333063125609
 20
66.60037949338096
 30
0.0
 11
77.08333063125609
 21
69.05302858352661
 31
0.0
  0
LINE
  5
491
330
1F
100
AcDbEntity
  8
A
  6
MOYEN
 62
     4
100
AcDbLine
 10
105.1136326789856
 20
66.60037949338096
 30
0.0
 11
105.1136326789856
 21
69.05302858352661
 31
0.0
  0
LINE
  5
492
330
1F
100
AcDbEntity
  8
A
  6
MOYEN
 62
     4
100
AcDbLine
 10
63.06817960739137
 20
66.60037782264476
 30
0.0
 11
63.06817960739137
 21
69.05302858352661
 31
0.0
  0
LINE
  5
493
330
1F
100
AcDbEntity
  8
A
  6
MOYEN
 62
     4
100
AcDbLine
 10
91.09848165512085
 20
66.60037782264476
 30
0.0
 11
91.09848165512085
 21
69.05302858352661
 31
0.0
  0
LINE
  5
494
330
1F
100
AcDbEntity
  8
A
  6
MOYEN
 62
     4
100
AcDbLine
 10
119.1287837028503
 20
66.60037782264476
 30
0.0
 11
119.1287837028503
 21
69.05302858352661
 31
0.0
  0
LINE
  5
495
330
1F
100
AcDbEntity
  8
A
  6
FIN
 62
     7
100
AcDbLine
 10
21.02272653579712
 20
55.03787755966186
 30
0.0
 11
42.04545307159424
 21
55.03787755966186
 31
0.0
  0
TEXT
  5
49B
330
1F
100
AcDbEntity
  8
A
  6
FIN
 62
     1
100
AcDbText
 10
26.7333922317349
 20
52.51552262016434
 30
0.0
 40
1.512885498915399
  1
BK
 41
0.9200000000000001
  7
ARIAL
 72
     4
 11
28.03030455383379
 21
53.27196536962204
 31
0.0
100
AcDbText
  0
TEXT
  5
49C
330
1F
100
AcDbEntity
  8
A
  6
FIN
 62
     1
100
AcDbText
 10
19.61852937299752
 20
52.51552262016434
 30
0.0
 40
1.512885498915399
  1
RD
 41
0.9200000000000001
  7
ARIAL
 72
     4
 11
21.02272653579712
 21
53.27196536962204
 31
0.0
100
AcDbText
  0
TEXT
  5
49D
330
1F
100
AcDbEntity
  8
A
  6
FIN
 62
     1
100
AcDbText
 10
27.13788655216701
 20
62.32612900516413
 30
0.0
 40
1.512885498915399
  1
C1
 41
0.9200000000000001
  7
ARIAL
 72
     4
 11
28.38068174223102
 21
63.08257175462182
 31
0.0
100
AcDbText
  0
TEXT
  5
4A7
330
1F
100
AcDbEntity
  8
A
  6
FIN
 62
     1
100
AcDbText
 10
55.16818734684437
 20
62.32612900516413
 30
0.0
 40
1.512885498915399
  1
C2
 41
0.9200000000000001
  7
ARIAL
 72
     4
 11
56.41098253690838
 21
63.08257175462182
 31
0.0
100
AcDbText
  0
TEXT
  5
4A8
330
1F
100
AcDbEntity
  8
A
  6
FIN
 62
     1
100
AcDbText
 10
83.19849106531004
 20
62.32664499612556
 30
0.0
 40
1.512885498915399
  1
C3
 41
0.9200000000000001
  7
ARIAL
 72
     4
 11
84.44128625537405
 21
63.08257175462182
 31
0.0
100
AcDbText
  0
TEXT
  5
4A9
330
1F
100
AcDbEntity
  8
A
  6
FIN
 62
     1
100
AcDbText
 10
111.2287931130395
 20
62.32612900516413
 30
0.0
 40
1.512885498915399
  1
C4
 41
0.9200000000000001
  7
ARIAL
 72
     4
 11
112.4715883031035
 21
63.08257175462182
 31
0.0
100
AcDbText
  0
TEXT
  5
4AC
330
1F
100
AcDbEntity
  8
A
  6
FIN
 62
     1
100
AcDbText
 10
27.58971041704868
 20
56.03169415920485
 30
0.0
 40
1.512885498915399
  1
Bus KNX
 41
0.9200000000000001
  7
ARIAL
 72
     4
 11
31.53408980369568
 21
56.77575312558821
 31
0.0
100
AcDbText
  0
MTEXT
  5
4CE
330
1F
100
AcDbEntity
  8
0
100
AcDbMText
 10
20.0
 20
74.5
 30
0.0
 40
2.0
 41
3.0
 71
     1
 72
     5
  1
1
 73
     1
 44
1.0
  0
MTEXT
  5
4D5
330
1F
100
AcDbEntity
  8
0
100
AcDbMText
 10
34.00000007740607
 20
74.50000004397304
 30
0.0
 40
2.0
 41
3.0
 71
     1
 72
     5
  1
2
 73
     1
 44
1.0
  0
MTEXT
  5
4DB
330
1F
100
AcDbEntity
  8
0
100
AcDbMText
 10
48.00000007740607
 20
74.50000004397304
 30
0.0
 40
2.0
 41
3.0
 71
     1
 72
     5
  1
3
 73
     1
 44
1.0
  0
MTEXT
  5
4E1
330
1F
100
AcDbEntity
  8
0
100
AcDbMText
 10
62.00000007740607
 20
74.50000004397304
 30
0.0
 40
2.0
 41
3.0
 71
     1
 72
     5
  1
4
 73
     1
 44
1.0
  0
MTEXT
  5
4E7
330
1F
100
AcDbEntity
  8
0
100
AcDbMText
 10
76.00000007740607
 20
74.50000004397304
 30
0.0
 40
2.0
 41
3.0
 71
     1
 72
     5
  1
5
 73
     1
 44
1.0
  0
MTEXT
  5
4ED
330
1F
100
AcDbEntity
  8
0
100
AcDbMText
 10
90.00000007740608
 20
74.50000004397304
 30
0.0
 40
2.0
 41
3.0
 71
     1
 72
     5
  1
6
 73
     1
 44
1.0
  0
MTEXT
  5
4F3
330
1F
100
AcDbEntity
  8
0
100
AcDbMText
 10
104.000000077406
 20
74.50000004397304
 30
0.0
 40
2.0
 41
3.0
 71
     1
 72
     5
  1
7
 73
     1
 44
1.0
  0
MTEXT
  5
4F9
330
1F
100
AcDbEntity
  8
0
100
AcDbMText
 10
118.000000077406
 20
74.50000004397304
 30
0.0
 40
2.0
 41
3.0
 71
     1
 72
     5
  1
8
 73
     1
 44
1.0
  0
MTEXT
  5
500
330
1F
100
AcDbEntity
  8
0
100
AcDbMText
 10
78.15331274554797
 20
52.96452453157747
 30
0.0
 40
2.0
 41
44.5
 71
     1
 72
     5
  1
HAGER TXA 204C
 73
     1
 44
1.0
  0
ENDSEC
  0
SECTION
  2
OBJECTS
  0
DICTIONARY
  5
C
330
0
100
AcDbDictionary
281
     1
  3
ACAD_GROUP
350
D
  3
ACAD_IMAGE_DICT
350
79
  3
ACAD_IMAGE_VARS
350
7B
  3
ACAD_LAYOUT
350
1A
  3
ACAD_MLINESTYLE
350
17
  3
ACAD_PLOTSETTINGS
350
19
  3
ACAD_PLOTSTYLENAME
350
40B
  3
ACDBHEADERROUNDTRIPXREC
350
524
  3
AcDbVariableDictionary
350
411
  0
IMAGEDEF_REACTOR
  5
7D
330
7C
100
AcDbRasterImageDefReactor
 90
        2
330
7C
  0
DICTIONARY
  5
D
102
{ACAD_REACTORS
330
C
102
}
330
C
100
AcDbDictionary
281
     1
  0
DICTIONARY
  5
79
102
{ACAD_REACTORS
330
C
102
}
330
C
100
AcDbDictionary
281
     1
  3
PETIT_LOGO_ERM_BLEU_ET_ORA
350
7A
  0
RASTERVARIABLES
  5
7B
102
{ACAD_REACTORS
330
C
102
}
330
C
100
AcDbRasterVariables
 90
        0
 70
     1
 71
     1
 72
     0
  0
DICTIONARY
  5
1A
102
{ACAD_REACTORS
330
C
102
}
330
C
100
AcDbDictionary
281
     1
  3
Model
350
40D
  3
Présentation1
350
40E
  0
DICTIONARY
  5
17
102
{ACAD_REACTORS
330
C
102
}
330
C
100
AcDbDictionary
281
     1
  3
STANDARD
350
18
  0
DICTIONARY
  5
19
102
{ACAD_REACTORS
330
C
102
}
330
C
100
AcDbDictionary
281
     1
  0
ACDBDICTIONARYWDFLT
  5
40B
102
{ACAD_REACTORS
330
C
102
}
330
C
100
AcDbDictionary
281
     1
  3
Normal
350
40C
100
AcDbDictionaryWithDefault
340
40C
  0
DICTIONARY
  5
524
102
{ACAD_REACTORS
330
C
102
}
330
C
100
AcDbDictionary
281
     1
  3
CEPSNTYPE
350
52E
  3
FINGERPRINTGUID
350
52F
  3
HYPERLINKBASE
350
527
  3
INSUNITS
350
52D
  3
LAYOUTDICT
350
529
  3
LWETCUNION
350
52C
  3
PLOTSETDICT
350
52A
  3
PLOTSTYLNAMDICT
350
52B
  3
PSVPSCALE
350
531
  3
PUCSBASE
350
534
  3
PUCSORGBACK
350
53A
  3
PUCSORGBOTTOM
350
536
  3
PUCSORGFRONT
350
539
  3
PUCSORGLEFT
350
537
  3
PUCSORGRIGHT
350
538
  3
PUCSORGTOP
350
535
  3
PUCSORTHOREF
350
532
  3
PUCSORTHOVIEW
350
533
  3
STYLESHEET
350
528
  3
TSTACKALIGN
350
525
  3
TSTACKSIZE
350
526
  3
UCSBASE
350
53D
  3
UCSORGBACK
350
543
  3
UCSORGBOTTOM
350
53F
  3
UCSORGFRONT
350
542
  3
UCSORGLEFT
350
540
  3
UCSORGRIGHT
350
541
  3
UCSORGTOP
350
53E
  3
UCSORTHOREF
350
53B
  3
UCSORTHOVIEW
350
53C
  3
VERSIONGUID
350
530
  0
DICTIONARY
  5
411
102
{ACAD_REACTORS
330
C
102
}
330
C
100
AcDbDictionary
281
     1
  3
DIMASSOC
350
412
  0
IMAGEDEF
  5
7A
102
{ACAD_REACTORS
330
79
330
7D
102
}
330
79
100
AcDbRasterImageDef
 90
        0
  1
PETIT LOGO ERM BLEU ET ORANGE.JPG
 10
367.0
 20
137.0
 11
0.002724795640327
 21
0.002724795640327
280
     1
281
     1
  0
LAYOUT
  5
40D
102
{ACAD_REACTORS
330
1A
102
}
330
1A
100
AcDbPlotSettings
  1

  2
\\PATRICK\HP LaserJet 6L
  4

  6

 40
0.0
 41
0.0
 42
0.0
 43
0.0
 44
0.0
 45
0.0
 46
0.0
 47
0.0
 48
0.0
 49
0.0
140
0.0
141
0.0
142
1.0
143
1.0
 70
  1712
 72
     0
 73
     0
 74
     0
  7

 75
     0
147
1.0
148
0.0
149
0.0
100
AcDbLayout
  1
Model
 70
     1
 71
     0
 10
0.0
 20
0.0
 11
12.0
 21
9.0
 12
0.0
 22
0.0
 32
0.0
 14
0.0
 24
0.0
 34
0.0
 15
0.0
 25
0.0
 35
0.0
146
0.0
 13
0.0
 23
0.0
 33
0.0
 16
1.0
 26
0.0
 36
0.0
 17
0.0
 27
1.0
 37
0.0
 76
     0
330
1F
  0
LAYOUT
  5
40E
102
{ACAD_REACTORS
330
1A
102
}
330
1A
100
AcDbPlotSettings
  1

  2
\\PATRICK\HP LaserJet 6L
  4

  6

 40
0.0
 41
0.0
 42
0.0
 43
0.0
 44
0.0
 45
0.0
 46
0.0
 47
0.0
 48
0.0
 49
0.0
140
0.0
141
0.0
142
1.0
143
1.0
 70
   688
 72
     0
 73
     0
 74
     5
  7

 75
    16
147
1.0
148
0.0
149
0.0
100
AcDbLayout
  1
Présentation1
 70
     1
 71
     1
 10
0.0
 20
0.0
 11
297.0
 21
210.0
 12
0.0
 22
0.0
 32
0.0
 14
0.0
 24
0.0
 34
0.0
 15
297.0
 25
210.0
 35
0.0
146
0.0
 13
0.0
 23
0.0
 33
0.0
 16
1.0
 26
0.0
 36
0.0
 17
0.0
 27
1.0
 37
0.0
 76
     0
330
1B
  0
MLINESTYLE
  5
18
102
{ACAD_REACTORS
330
17
102
}
330
17
100
AcDbMlineStyle
  2
STANDARD
 70
     0
  3

 62
   256
 51
90.0
 52
90.0
 71
     2
 49
0.5
 62
   256
  6
BYLAYER
 49
-0.5
 62
   256
  6
BYLAYER
  0
ACDBPLACEHOLDER
  5
40C
102
{ACAD_REACTORS
330
40B
102
}
330
40B
  0
XRECORD
  5
52E
102
{ACAD_REACTORS
330
524
102
}
330
524
100
AcDbXrecord
280
     1
 90
        0
  0
XRECORD
  5
52F
102
{ACAD_REACTORS
330
524
102
}
330
524
100
AcDbXrecord
280
     1
  1
{BF291E0C-2214-48AD-8BE7-31E65F078F20}
  0
XRECORD
  5
527
102
{ACAD_REACTORS
330
524
102
}
330
524
100
AcDbXrecord
280
     1
  1

  0
XRECORD
  5
52D
102
{ACAD_REACTORS
330
524
102
}
330
524
100
AcDbXrecord
280
     1
 90
        0
  0
XRECORD
  5
529
102
{ACAD_REACTORS
330
524
102
}
330
524
100
AcDbXrecord
280
     1
340
1A
  0
XRECORD
  5
52C
102
{ACAD_REACTORS
330
524
102
}
330
524
100
AcDbXrecord
280
     1
 90
    10781
  0
XRECORD
  5
52A
102
{ACAD_REACTORS
330
524
102
}
330
524
100
AcDbXrecord
280
     1
340
19
  0
XRECORD
  5
52B
102
{ACAD_REACTORS
330
524
102
}
330
524
100
AcDbXrecord
280
     1
340
40B
  0
XRECORD
  5
531
102
{ACAD_REACTORS
330
524
102
}
330
524
100
AcDbXrecord
280
     1
 40
0.0
  0
XRECORD
  5
534
102
{ACAD_REACTORS
330
524
102
}
330
524
100
AcDbXrecord
280
     1
340
0
  0
XRECORD
  5
53A
102
{ACAD_REACTORS
330
524
102
}
330
524
100
AcDbXrecord
280
     1
 10
0.0
 20
0.0
 30
0.0
  0
XRECORD
  5
536
102
{ACAD_REACTORS
330
524
102
}
330
524
100
AcDbXrecord
280
     1
 10
0.0
 20
0.0
 30
0.0
  0
XRECORD
  5
539
102
{ACAD_REACTORS
330
524
102
}
330
524
100
AcDbXrecord
280
     1
 10
0.0
 20
0.0
 30
0.0
  0
XRECORD
  5
537
102
{ACAD_REACTORS
330
524
102
}
330
524
100
AcDbXrecord
280
     1
 10
0.0
 20
0.0
 30
0.0
  0
XRECORD
  5
538
102
{ACAD_REACTORS
330
524
102
}
330
524
100
AcDbXrecord
280
     1
 10
0.0
 20
0.0
 30
0.0
  0
XRECORD
  5
535
102
{ACAD_REACTORS
330
524
102
}
330
524
100
AcDbXrecord
280
     1
 10
0.0
 20
0.0
 30
0.0
  0
XRECORD
  5
532
102
{ACAD_REACTORS
330
524
102
}
330
524
100
AcDbXrecord
280
     1
340
0
  0
XRECORD
  5
533
102
{ACAD_REACTORS
330
524
102
}
330
524
100
AcDbXrecord
280
     1
 70
     0
  0
XRECORD
  5
528
102
{ACAD_REACTORS
330
524
102
}
330
524
100
AcDbXrecord
280
     1
  1

  0
XRECORD
  5
525
102
{ACAD_REACTORS
330
524
102
}
330
524
100
AcDbXrecord
280
     1
 90
        1
  0
XRECORD
  5
526
102
{ACAD_REACTORS
330
524
102
}
330
524
100
AcDbXrecord
280
     1
 90
       70
  0
XRECORD
  5
53D
102
{ACAD_REACTORS
330
524
102
}
330
524
100
AcDbXrecord
280
     1
340
0
  0
XRECORD
  5
543
102
{ACAD_REACTORS
330
524
102
}
330
524
100
AcDbXrecord
280
     1
 10
0.0
 20
0.0
 30
0.0
  0
XRECORD
  5
53F
102
{ACAD_REACTORS
330
524
102
}
330
524
100
AcDbXrecord
280
     1
 10
0.0
 20
0.0
 30
0.0
  0
XRECORD
  5
542
102
{ACAD_REACTORS
330
524
102
}
330
524
100
AcDbXrecord
280
     1
 10
0.0
 20
0.0
 30
0.0
  0
XRECORD
  5
540
102
{ACAD_REACTORS
330
524
102
}
330
524
100
AcDbXrecord
280
     1
 10
0.0
 20
0.0
 30
0.0
  0
XRECORD
  5
541
102
{ACAD_REACTORS
330
524
102
}
330
524
100
AcDbXrecord
280
     1
 10
0.0
 20
0.0
 30
0.0
  0
XRECORD
  5
53E
102
{ACAD_REACTORS
330
524
102
}
330
524
100
AcDbXrecord
280
     1
 10
0.0
 20
0.0
 30
0.0
  0
XRECORD
  5
53B
102
{ACAD_REACTORS
330
524
102
}
330
524
100
AcDbXrecord
280
     1
340
0
  0
XRECORD
  5
53C
102
{ACAD_REACTORS
330
524
102
}
330
524
100
AcDbXrecord
280
     1
 70
     0
  0
XRECORD
  5
530
102
{ACAD_REACTORS
330
524
102
}
330
524
100
AcDbXrecord
280
     1
  1
{D44FDE6C-ADBB-4F92-816F-E605F6EF8E76}
  0
DICTIONARYVAR
  5
412
102
{ACAD_REACTORS
330
411
102
}
330
411
100
DictionaryVariables
280
     0
  1
1
  0
ENDSEC
  0
EOF
