  0
SECTION
  2
HEADER
  9
$ACADVER
  1
AC1015
  9
$ACADMAINTVER
 70
     6
  9
$DWGCODEPAGE
  3
ANSI_1252
  9
$INSBASE
 10
0.0
 20
0.0
 30
0.0
  9
$EXTMIN
 10
0.0
 20
0.0
 30
0.0
  9
$EXTMAX
 10
297.0000610351563
 20
210.0
 30
0.0
  9
$LIMMIN
 10
0.0
 20
0.0
  9
$LIMMAX
 10
297.0
 20
210.0
  9
$ORTHOMODE
 70
     0
  9
$REGENMODE
 70
     1
  9
$FILLMODE
 70
     1
  9
$QTEXTMODE
 70
     0
  9
$MIRRTEXT
 70
     1
  9
$LTSCALE
 40
15.0
  9
$ATTMODE
 70
     1
  9
$TEXTSIZE
 40
0.2
  9
$TRACEWID
 40
0.05
  9
$TEXTSTYLE
  7
STANDARD
  9
$CLAYER
  8
0
  9
$CELTYPE
  6
BYLAYER
  9
$CECOLOR
 62
   256
  9
$CELTSCALE
 40
1.0
  9
$DISPSILH
 70
     0
  9
$DIMSCALE
 40
1.0
  9
$DIMASZ
 40
0.18
  9
$DIMEXO
 40
0.0625
  9
$DIMDLI
 40
0.38
  9
$DIMRND
 40
0.0
  9
$DIMDLE
 40
0.0
  9
$DIMEXE
 40
0.18
  9
$DIMTP
 40
0.0
  9
$DIMTM
 40
0.0
  9
$DIMTXT
 40
0.18
  9
$DIMCEN
 40
0.09
  9
$DIMTSZ
 40
0.0
  9
$DIMTOL
 70
     0
  9
$DIMLIM
 70
     0
  9
$DIMTIH
 70
     1
  9
$DIMTOH
 70
     1
  9
$DIMSE1
 70
     0
  9
$DIMSE2
 70
     0
  9
$DIMTAD
 70
     0
  9
$DIMZIN
 70
     0
  9
$DIMBLK
  1

  9
$DIMASO
 70
     1
  9
$DIMSHO
 70
     1
  9
$DIMPOST
  1

  9
$DIMAPOST
  1

  9
$DIMALT
 70
     0
  9
$DIMALTD
 70
     2
  9
$DIMALTF
 40
25.4
  9
$DIMLFAC
 40
1.0
  9
$DIMTOFL
 70
     0
  9
$DIMTVP
 40
0.0
  9
$DIMTIX
 70
     0
  9
$DIMSOXD
 70
     0
  9
$DIMSAH
 70
     0
  9
$DIMBLK1
  1

  9
$DIMBLK2
  1

  9
$DIMSTYLE
  2
STANDARD
  9
$DIMCLRD
 70
     0
  9
$DIMCLRE
 70
     0
  9
$DIMCLRT
 70
     0
  9
$DIMTFAC
 40
1.0
  9
$DIMGAP
 40
0.09
  9
$DIMJUST
 70
     0
  9
$DIMSD1
 70
     0
  9
$DIMSD2
 70
     0
  9
$DIMTOLJ
 70
     1
  9
$DIMTZIN
 70
     0
  9
$DIMALTZ
 70
     0
  9
$DIMALTTZ
 70
     0
  9
$DIMUPT
 70
     0
  9
$DIMDEC
 70
     4
  9
$DIMTDEC
 70
     4
  9
$DIMALTU
 70
     2
  9
$DIMALTTD
 70
     2
  9
$DIMTXSTY
  7
STANDARD
  9
$DIMAUNIT
 70
     0
  9
$DIMADEC
 70
     0
  9
$DIMALTRND
 40
0.0
  9
$DIMAZIN
 70
     0
  9
$DIMDSEP
 70
    46
  9
$DIMATFIT
 70
     3
  9
$DIMFRAC
 70
     0
  9
$DIMLDRBLK
  1

  9
$DIMLUNIT
 70
     2
  9
$DIMLWD
 70
    -2
  9
$DIMLWE
 70
    -2
  9
$DIMTMOVE
 70
     0
  9
$LUNITS
 70
     2
  9
$LUPREC
 70
     4
  9
$SKETCHINC
 40
0.1
  9
$FILLETRAD
 40
0.5
  9
$AUNITS
 70
     0
  9
$AUPREC
 70
     0
  9
$MENU
  1
.
  9
$ELEVATION
 40
0.0
  9
$PELEVATION
 40
0.0
  9
$THICKNESS
 40
0.0
  9
$LIMCHECK
 70
     0
  9
$CHAMFERA
 40
0.5
  9
$CHAMFERB
 40
0.5
  9
$CHAMFERC
 40
1.0
  9
$CHAMFERD
 40
0.0
  9
$SKPOLY
 70
     0
  9
$TDCREATE
 40
2454848.442798888
  9
$TDUCREATE
 40
2454848.359465556
  9
$TDUPDATE
 40
2455010.458138113
  9
$TDUUPDATE
 40
2455010.374804780
  9
$TDINDWG
 40
0.0746682060
  9
$TDUSRTIMER
 40
0.0746680903
  9
$USRTIMER
 70
     1
  9
$ANGBASE
 50
0.0
  9
$ANGDIR
 70
     0
  9
$PDMODE
 70
     0
  9
$PDSIZE
 40
0.0
  9
$PLINEWID
 40
0.0
  9
$SPLFRAME
 70
     0
  9
$SPLINETYPE
 70
     6
  9
$SPLINESEGS
 70
     8
  9
$HANDSEED
  5
87E
  9
$SURFTAB1
 70
     6
  9
$SURFTAB2
 70
     6
  9
$SURFTYPE
 70
     6
  9
$SURFU
 70
     6
  9
$SURFV
 70
     6
  9
$UCSBASE
  2

  9
$UCSNAME
  2

  9
$UCSORG
 10
0.0
 20
0.0
 30
0.0
  9
$UCSXDIR
 10
1.0
 20
0.0
 30
0.0
  9
$UCSYDIR
 10
0.0
 20
1.0
 30
0.0
  9
$UCSORTHOREF
  2

  9
$UCSORTHOVIEW
 70
     0
  9
$UCSORGTOP
 10
0.0
 20
0.0
 30
0.0
  9
$UCSORGBOTTOM
 10
0.0
 20
0.0
 30
0.0
  9
$UCSORGLEFT
 10
0.0
 20
0.0
 30
0.0
  9
$UCSORGRIGHT
 10
0.0
 20
0.0
 30
0.0
  9
$UCSORGFRONT
 10
0.0
 20
0.0
 30
0.0
  9
$UCSORGBACK
 10
0.0
 20
0.0
 30
0.0
  9
$PUCSBASE
  2

  9
$PUCSNAME
  2

  9
$PUCSORG
 10
0.0
 20
0.0
 30
0.0
  9
$PUCSXDIR
 10
1.0
 20
0.0
 30
0.0
  9
$PUCSYDIR
 10
0.0
 20
1.0
 30
0.0
  9
$PUCSORTHOREF
  2

  9
$PUCSORTHOVIEW
 70
     0
  9
$PUCSORGTOP
 10
0.0
 20
0.0
 30
0.0
  9
$PUCSORGBOTTOM
 10
0.0
 20
0.0
 30
0.0
  9
$PUCSORGLEFT
 10
0.0
 20
0.0
 30
0.0
  9
$PUCSORGRIGHT
 10
0.0
 20
0.0
 30
0.0
  9
$PUCSORGFRONT
 10
0.0
 20
0.0
 30
0.0
  9
$PUCSORGBACK
 10
0.0
 20
0.0
 30
0.0
  9
$USERI1
 70
     0
  9
$USERI2
 70
     0
  9
$USERI3
 70
     0
  9
$USERI4
 70
     0
  9
$USERI5
 70
     0
  9
$USERR1
 40
0.0
  9
$USERR2
 40
0.0
  9
$USERR3
 40
0.0
  9
$USERR4
 40
0.0
  9
$USERR5
 40
0.0
  9
$WORLDVIEW
 70
     1
  9
$SHADEDGE
 70
     3
  9
$SHADEDIF
 70
    70
  9
$TILEMODE
 70
     1
  9
$MAXACTVP
 70
    64
  9
$PINSBASE
 10
0.0
 20
0.0
 30
0.0
  9
$PLIMCHECK
 70
     0
  9
$PEXTMIN
 10
0.0
 20
0.0
 30
0.0
  9
$PEXTMAX
 10
297.0
 20
210.0
 30
0.0
  9
$PLIMMIN
 10
0.0
 20
0.0
  9
$PLIMMAX
 10
297.0
 20
210.0
  9
$UNITMODE
 70
     0
  9
$VISRETAIN
 70
     1
  9
$PLINEGEN
 70
     0
  9
$PSLTSCALE
 70
     1
  9
$TREEDEPTH
 70
  3020
  9
$CMLSTYLE
  2
STANDARD
  9
$CMLJUST
 70
     0
  9
$CMLSCALE
 40
1.0
  9
$PROXYGRAPHICS
 70
     1
  9
$MEASUREMENT
 70
     0
  9
$CELWEIGHT
370
    -1
  9
$ENDCAPS
280
     0
  9
$JOINSTYLE
280
     0
  9
$LWDISPLAY
290
     0
  9
$INSUNITS
 70
     0
  9
$HYPERLINKBASE
  1

  9
$STYLESHEET
  1

  9
$XEDIT
290
     1
  9
$CEPSNTYPE
380
     0
  9
$PSTYLEMODE
290
     1
  9
$FINGERPRINTGUID
  2
{775C8957-96B5-41F4-BAA4-18DC4AF14556}
  9
$VERSIONGUID
  2
{45E848FE-A4A1-4036-A881-E28921BCBBD2}
  9
$EXTNAMES
290
     1
  9
$PSVPSCALE
 40
0.0
  9
$OLESTARTUP
290
     0
  0
ENDSEC
  0
SECTION
  2
CLASSES
  0
CLASS
  1
ACDBDICTIONARYWDFLT
  2
AcDbDictionaryWithDefault
  3
AutoCAD 2000
 90
        0
280
     0
281
     0
  0
CLASS
  1
IMAGEDEF
  2
AcDbRasterImageDef
  3
ISM
 90
        0
280
     0
281
     0
  0
CLASS
  1
RASTERVARIABLES
  2
AcDbRasterVariables
  3
ISM
 90
        0
280
     0
281
     0
  0
CLASS
  1
IMAGE
  2
AcDbRasterImage
  3
ISM
 90
      127
280
     0
281
     1
  0
CLASS
  1
IMAGEDEF_REACTOR
  2
AcDbRasterImageDefReactor
  3
ISM
 90
        1
280
     0
281
     0
  0
CLASS
  1
XRECORD
  2
AcDbXrecord
  3
AutoCAD 2000
 90
    32768
280
     0
281
     0
  0
CLASS
  1
LWPOLYLINE
  2
AcDbPolyline
  3
AutoCAD 2000
 90
    32768
280
     0
281
     1
  0
CLASS
  1
HATCH
  2
AcDbHatch
  3
AutoCAD 2000
 90
    32768
280
     0
281
     1
  0
CLASS
  1
ACDBPLACEHOLDER
  2
AcDbPlaceHolder
  3
AutoCAD 2000
 90
        0
280
     0
281
     0
  0
CLASS
  1
LAYOUT
  2
AcDbLayout
  3
AutoCAD 2000
 90
        0
280
     0
281
     0
  0
CLASS
  1
DICTIONARYVAR
  2
AcDbDictionaryVar
  3
AutoCAD 2000
 90
        0
280
     0
281
     0
  0
ENDSEC
  0
SECTION
  2
TABLES
  0
TABLE
  2
VPORT
  5
8
330
0
100
AcDbSymbolTable
 70
     4
  0
VPORT
  5
85D
330
8
100
AcDbSymbolTableRecord
100
AcDbViewportTableRecord
  2
*Active
 70
     0
 10
0.0
 20
0.0
 11
1.0
 21
1.0
 12
134.2127019837491
 22
107.9753737365646
 13
0.0
 23
0.0
 14
5.0
 24
5.0
 15
5.0
 25
5.0
 16
0.0
 26
0.0
 36
1.0
 17
0.0
 27
0.0
 37
0.0
 40
225.3936211150473
 41
1.595959595959596
 42
50.0
 43
0.0
 44
0.0
 50
0.0
 51
0.0
 71
     0
 72
   100
 73
     1
 74
     3
 75
     0
 76
     0
 77
     0
 78
     0
281
     0
 65
     1
110
0.0
120
0.0
130
0.0
111
1.0
121
0.0
131
0.0
112
0.0
122
1.0
132
0.0
 79
     0
146
0.0
  0
ENDTAB
  0
TABLE
  2
LTYPE
  5
5
330
0
100
AcDbSymbolTable
 70
    41
  0
LTYPE
  5
14
330
5
100
AcDbSymbolTableRecord
100
AcDbLinetypeTableRecord
  2
BYBLOCK
 70
     0
  3

 72
    65
 73
     0
 40
0.0
  0
LTYPE
  5
15
330
5
100
AcDbSymbolTableRecord
100
AcDbLinetypeTableRecord
  2
BYLAYER
 70
     0
  3

 72
    65
 73
     0
 40
0.0
  0
LTYPE
  5
16
330
5
100
AcDbSymbolTableRecord
100
AcDbLinetypeTableRecord
  2
CONTINUOUS
 70
     0
  3
Solid line
 72
    65
 73
     0
 40
0.0
  0
LTYPE
  5
2A
330
5
100
AcDbSymbolTableRecord
100
AcDbLinetypeTableRecord
  2
FIN
 70
     0
  3
________________________________
 72
    65
 73
     0
 40
0.0
  0
LTYPE
  5
2B
330
5
100
AcDbSymbolTableRecord
100
AcDbLinetypeTableRecord
  2
MOYEN
 70
     0
  3
________________________________
 72
    65
 73
     0
 40
0.0
  0
LTYPE
  5
2C
330
5
100
AcDbSymbolTableRecord
100
AcDbLinetypeTableRecord
  2
EPAIS
 70
     0
  3
________________________________
 72
    65
 73
     0
 40
0.0
  0
LTYPE
  5
2D
330
5
100
AcDbSymbolTableRecord
100
AcDbLinetypeTableRecord
  2
TIRET
 70
     0
  3
____    ____    ____    ____    ^D
 72
    65
 73
     4
 40
1.0
 49
0.25
 74
     0
 49
-0.25
 74
     0
 49
0.25
 74
     0
 49
-0.25
 74
     0
  0
LTYPE
  5
2E
330
5
100
AcDbSymbolTableRecord
100
AcDbLinetypeTableRecord
  2
POINT
 70
     0
  3
_ _ _ _ _ _ _ _ _ _ _ _ _ _ _ _ ^H
 72
    65
 73
     8
 40
0.5
 49
0.0625
 74
     0
 49
-0.0625
 74
     0
 49
0.0625
 74
     0
 49
-0.0625
 74
     0
 49
0.0625
 74
     0
 49
-0.0625
 74
     0
 49
0.0625
 74
     0
 49
-0.0625
 74
     0
  0
LTYPE
  5
2F
330
5
100
AcDbSymbolTableRecord
100
AcDbLinetypeTableRecord
  2
AXES
 70
     0
  3
_______   _     _______   _     ^D
 72
    65
 73
     4
 40
1.0
 49
0.4375
 74
     0
 49
-0.1875
 74
     0
 49
0.0625
 74
     0
 49
-0.3125
 74
     0
  0
LTYPE
  5
30
330
5
100
AcDbSymbolTableRecord
100
AcDbLinetypeTableRecord
  2
AXESDBLE
 70
     0
  3
_____   _   _   _____   _   _   ^F
 72
    65
 73
     6
 40
1.0
 49
0.3125
 74
     0
 49
-0.1875
 74
     0
 49
0.0625
 74
     0
 49
-0.1875
 74
     0
 49
0.0625
 74
     0
 49
-0.1875
 74
     0
  0
LTYPE
  5
31
330
5
100
AcDbSymbolTableRecord
100
AcDbLinetypeTableRecord
  2
BLEU
 70
     0
  3
________________________________
 72
    65
 73
     0
 40
0.0
  0
LTYPE
  5
32
330
5
100
AcDbSymbolTableRecord
100
AcDbLinetypeTableRecord
  2
VERT
 70
     0
  3
________________________________
 72
    65
 73
     0
 40
0.0
  0
LTYPE
  5
33
330
5
100
AcDbSymbolTableRecord
100
AcDbLinetypeTableRecord
  2
CYAN
 70
     0
  3
________________________________
 72
    65
 73
     0
 40
0.0
  0
LTYPE
  5
34
330
5
100
AcDbSymbolTableRecord
100
AcDbLinetypeTableRecord
  2
ROUGE
 70
     0
  3
________________________________
 72
    65
 73
     0
 40
0.0
  0
LTYPE
  5
35
330
5
100
AcDbSymbolTableRecord
100
AcDbLinetypeTableRecord
  2
VIOLET
 70
     0
  3
________________________________
 72
    65
 73
     0
 40
0.0
  0
LTYPE
  5
36
330
5
100
AcDbSymbolTableRecord
100
AcDbLinetypeTableRecord
  2
JAUNE
 70
     0
  3
________________________________
 72
    65
 73
     0
 40
0.0
  0
LTYPE
  5
37
330
5
100
AcDbSymbolTableRecord
100
AcDbLinetypeTableRecord
  2
NOIR
 70
     0
  3
________________________________
 72
    65
 73
     0
 40
0.0
  0
LTYPE
  5
38
330
5
100
AcDbSymbolTableRecord
100
AcDbLinetypeTableRecord
  2
BLANC
 70
     0
  3
________________________________
 72
    65
 73
     0
 40
0.0
  0
LTYPE
  5
39
330
5
100
AcDbSymbolTableRecord
100
AcDbLinetypeTableRecord
  2
ORANGE
 70
     0
  3
________________________________
 72
    65
 73
     0
 40
0.0
  0
LTYPE
  5
3A
330
5
100
AcDbSymbolTableRecord
100
AcDbLinetypeTableRecord
  2
BRUN
 70
     0
  3
________________________________
 72
    65
 73
     0
 40
0.0
  0
LTYPE
  5
3B
330
5
100
AcDbSymbolTableRecord
100
AcDbLinetypeTableRecord
  2
GRIS
 70
     0
  3
________________________________
 72
    65
 73
     0
 40
0.0
  0
LTYPE
  5
3C
330
5
100
AcDbSymbolTableRecord
100
AcDbLinetypeTableRecord
  2
SYMBOL_C
 70
     0
  3
________________________________
 72
    65
 73
     0
 40
0.0
  0
LTYPE
  5
3D
330
5
100
AcDbSymbolTableRecord
100
AcDbLinetypeTableRecord
  2
SYMBOL_P
 70
     0
  3
________________________________
 72
    65
 73
     0
 40
0.0
  0
LTYPE
  5
3E
330
5
100
AcDbSymbolTableRecord
100
AcDbLinetypeTableRecord
  2
LINE
 70
     0
  3
________________________________
 72
    65
 73
     0
 40
0.0
  0
LTYPE
  5
3F
330
5
100
AcDbSymbolTableRecord
100
AcDbLinetypeTableRecord
  2
LINE_1
 70
     0
  3
________________________________
 72
    65
 73
     0
 40
0.0
  0
LTYPE
  5
40
330
5
100
AcDbSymbolTableRecord
100
AcDbLinetypeTableRecord
  2
LINE_2
 70
     0
  3
________________________________
 72
    65
 73
     0
 40
0.0
  0
LTYPE
  5
41
330
5
100
AcDbSymbolTableRecord
100
AcDbLinetypeTableRecord
  2
LINE_3
 70
     0
  3
________________________________
 72
    65
 73
     0
 40
0.0
  0
LTYPE
  5
42
330
5
100
AcDbSymbolTableRecord
100
AcDbLinetypeTableRecord
  2
LINE_4
 70
     0
  3
________________________________
 72
    65
 73
     0
 40
0.0
  0
LTYPE
  5
43
330
5
100
AcDbSymbolTableRecord
100
AcDbLinetypeTableRecord
  2
LINE_5
 70
     0
  3
________________________________
 72
    65
 73
     0
 40
0.0
  0
LTYPE
  5
44
330
5
100
AcDbSymbolTableRecord
100
AcDbLinetypeTableRecord
  2
LINE_6
 70
     0
  3
________________________________
 72
    65
 73
     0
 40
0.0
  0
LTYPE
  5
45
330
5
100
AcDbSymbolTableRecord
100
AcDbLinetypeTableRecord
  2
LINE_7
 70
     0
  3
________________________________
 72
    65
 73
     0
 40
0.0
  0
LTYPE
  5
46
330
5
100
AcDbSymbolTableRecord
100
AcDbLinetypeTableRecord
  2
LINE_8
 70
     0
  3
________________________________
 72
    65
 73
     0
 40
0.0
  0
LTYPE
  5
47
330
5
100
AcDbSymbolTableRecord
100
AcDbLinetypeTableRecord
  2
LINE_9
 70
     0
  3
________________________________
 72
    65
 73
     0
 40
0.0
  0
LTYPE
  5
48
330
5
100
AcDbSymbolTableRecord
100
AcDbLinetypeTableRecord
  2
LINE_10
 70
     0
  3
________________________________
 72
    65
 73
     0
 40
0.0
  0
LTYPE
  5
49
330
5
100
AcDbSymbolTableRecord
100
AcDbLinetypeTableRecord
  2
LINE_11
 70
     0
  3
________________________________
 72
    65
 73
     0
 40
0.0
  0
LTYPE
  5
4A
330
5
100
AcDbSymbolTableRecord
100
AcDbLinetypeTableRecord
  2
LINE_12
 70
     0
  3
________________________________
 72
    65
 73
     0
 40
0.0
  0
LTYPE
  5
4B
330
5
100
AcDbSymbolTableRecord
100
AcDbLinetypeTableRecord
  2
LINE_13
 70
     0
  3
________________________________
 72
    65
 73
     0
 40
0.0
  0
LTYPE
  5
4C
330
5
100
AcDbSymbolTableRecord
100
AcDbLinetypeTableRecord
  2
LINE_14
 70
     0
  3
________________________________
 72
    65
 73
     0
 40
0.0
  0
LTYPE
  5
4D
330
5
100
AcDbSymbolTableRecord
100
AcDbLinetypeTableRecord
  2
LINE_15
 70
     0
  3
________________________________
 72
    65
 73
     0
 40
0.0
  0
LTYPE
  5
4E
330
5
100
AcDbSymbolTableRecord
100
AcDbLinetypeTableRecord
  2
LINE_16
 70
     0
  3
________________________________
 72
    65
 73
     0
 40
0.0
  0
LTYPE
  5
4F
330
5
100
AcDbSymbolTableRecord
100
AcDbLinetypeTableRecord
  2
LINE_17
 70
     0
  3
________________________________
 72
    65
 73
     0
 40
0.0
  0
LTYPE
  5
50
330
5
100
AcDbSymbolTableRecord
100
AcDbLinetypeTableRecord
  2
LINE_18
 70
     0
  3
________________________________
 72
    65
 73
     0
 40
0.0
  0
LTYPE
  5
51
330
5
100
AcDbSymbolTableRecord
100
AcDbLinetypeTableRecord
  2
LINE_19
 70
     0
  3
________________________________
 72
    65
 73
     0
 40
0.0
  0
ENDTAB
  0
TABLE
  2
LAYER
  5
2
330
0
100
AcDbSymbolTable
 70
     4
  0
LAYER
  5
10
330
2
100
AcDbSymbolTableRecord
100
AcDbLayerTableRecord
  2
0
 70
     0
 62
     7
  6
CONTINUOUS
370
    -3
390
3F6
  0
LAYER
  5
53
330
2
100
AcDbSymbolTableRecord
100
AcDbLayerTableRecord
  2
DEFAULT
 70
     0
 62
     1
  6
CONTINUOUS
370
    -3
390
3F6
  0
LAYER
  5
5C
330
2
100
AcDbSymbolTableRecord
100
AcDbLayerTableRecord
  2
A
 70
     0
 62
     1
  6
CONTINUOUS
370
    -3
390
3F6
  0
LAYER
  5
172
330
2
100
AcDbSymbolTableRecord
100
AcDbLayerTableRecord
  2
B
 70
     0
 62
     1
  6
CONTINUOUS
370
    -3
390
3F6
  0
ENDTAB
  0
TABLE
  2
STYLE
  5
3
330
0
100
AcDbSymbolTable
 70
     2
  0
STYLE
  5
11
330
3
100
AcDbSymbolTableRecord
100
AcDbTextStyleTableRecord
  2
STANDARD
 70
     0
 40
0.0
 41
1.0
 50
0.0
 71
     0
 42
0.2
  3
txt
  4

  0
STYLE
  5
92
330
3
100
AcDbSymbolTableRecord
100
AcDbTextStyleTableRecord
  2
ARIAL
 70
     0
 40
2.657142857142857
 41
0.9200000000000001
 50
0.0
 71
     0
 42
0.5
  3
ARIAL__0.TTF
  4

1001
ACAD
1000
Arial
1071
       34
  0
ENDTAB
  0
TABLE
  2
VIEW
  5
6
330
0
100
AcDbSymbolTable
 70
     1
  0
VIEW
  5
52
330
6
100
AcDbSymbolTableRecord
100
AcDbViewTableRecord
  2
VIEW
 70
     0
 40
1.0
 10
0.0
 20
0.0
 41
1.0
 11
0.0
 21
0.0
 31
1.0
 12
0.0
 22
0.0
 32
0.0
 42
50.0
 43
0.0
 44
0.0
 50
0.0
 71
     0
281
     0
 72
     0
  0
ENDTAB
  0
TABLE
  2
UCS
  5
7
330
0
100
AcDbSymbolTable
 70
     0
  0
ENDTAB
  0
TABLE
  2
APPID
  5
9
330
0
100
AcDbSymbolTable
 70
     1
  0
APPID
  5
12
330
9
100
AcDbSymbolTableRecord
100
AcDbRegAppTableRecord
  2
ACAD
 70
     0
  0
ENDTAB
  0
TABLE
  2
DIMSTYLE
  5
A
330
0
100
AcDbSymbolTable
 70
     1
100
AcDbDimStyleTable
 71
     0
  0
DIMSTYLE
105
27
330
A
100
AcDbSymbolTableRecord
100
AcDbDimStyleTableRecord
  2
STANDARD
 70
     0
340
11
  0
ENDTAB
  0
TABLE
  2
BLOCK_RECORD
  5
1
330
0
100
AcDbSymbolTable
 70
    11
  0
BLOCK_RECORD
  5
1F
330
1
100
AcDbSymbolTableRecord
100
AcDbBlockTableRecord
  2
*MODEL_SPACE
340
3F7
  0
BLOCK_RECORD
  5
1B
330
1
100
AcDbSymbolTableRecord
100
AcDbBlockTableRecord
  2
*PAPER_SPACE
340
3F8
  0
BLOCK_RECORD
  5
54
330
1
100
AcDbSymbolTableRecord
100
AcDbBlockTableRecord
  2
14
340
0
102
{BLKREFS
331
CB
102
}
  0
BLOCK_RECORD
  5
180
330
1
100
AcDbSymbolTableRecord
100
AcDbBlockTableRecord
  2
004C0_000_0_3_1
340
0
102
{BLKREFS
331
18C
331
190
102
}
  0
BLOCK_RECORD
  5
195
330
1
100
AcDbSymbolTableRecord
100
AcDbBlockTableRecord
  2
018C0_001_0_3_1
340
0
102
{BLKREFS
331
1A0
331
25E
331
27C
331
2CC
331
34A
331
34E
102
}
  0
BLOCK_RECORD
  5
1A4
330
1
100
AcDbSymbolTableRecord
100
AcDbBlockTableRecord
  2
_I445_KNX_0_3_1
340
0
102
{BLKREFS
331
23C
102
}
  0
BLOCK_RECORD
  5
262
330
1
100
AcDbSymbolTableRecord
100
AcDbBlockTableRecord
  2
R05C0N_R01_0_3_1
340
0
102
{BLKREFS
331
276
102
}
  0
BLOCK_RECORD
  5
280
330
1
100
AcDbSymbolTableRecord
100
AcDbBlockTableRecord
  2
X12C0_X01_0_3_1
340
0
102
{BLKREFS
331
2C8
331
2E6
331
322
331
32E
331
33A
331
346
331
35A
331
35E
331
36A
331
36E
331
38C
331
398
102
}
  0
BLOCK_RECORD
  5
2D0
330
1
100
AcDbSymbolTableRecord
100
AcDbBlockTableRecord
  2
028C0_002_0_3_1
340
0
102
{BLKREFS
331
2E3
102
}
  0
BLOCK_RECORD
  5
2EA
330
1
100
AcDbSymbolTableRecord
100
AcDbBlockTableRecord
  2
H10C0N_H01_0_3_1
340
0
102
{BLKREFS
331
2FE
331
326
331
332
331
33E
331
352
331
362
331
384
331
390
102
}
  0
BLOCK_RECORD
  5
307
330
1
100
AcDbSymbolTableRecord
100
AcDbBlockTableRecord
  2
H03C0N_H01_0_3_1
340
0
102
{BLKREFS
331
31A
102
}
  0
BLOCK_RECORD
  5
372
330
1
100
AcDbSymbolTableRecord
100
AcDbBlockTableRecord
  2
012C0_001_0_3_1
340
0
102
{BLKREFS
331
380
331
39C
102
}
  0
BLOCK_RECORD
  5
3A0
330
1
100
AcDbSymbolTableRecord
100
AcDbBlockTableRecord
  2
002C0_000_0_3_1
340
0
102
{BLKREFS
331
3AC
331
3B1
102
}
  0
ENDTAB
  0
ENDSEC
  0
SECTION
  2
BLOCKS
  0
BLOCK
  5
20
330
1F
100
AcDbEntity
  8
0
100
AcDbBlockBegin
  2
*MODEL_SPACE
 70
     0
 10
0.0
 20
0.0
 30
0.0
  3
*MODEL_SPACE
  1

  0
ENDBLK
  5
21
330
1F
100
AcDbEntity
  8
0
100
AcDbBlockEnd
  0
BLOCK
  5
1C
330
1B
100
AcDbEntity
 67
     1
  8
0
100
AcDbBlockBegin
  2
*PAPER_SPACE
 70
     0
 10
0.0
 20
0.0
 30
0.0
  3
*PAPER_SPACE
  1

  0
ENDBLK
  5
1D
330
1B
100
AcDbEntity
 67
     1
  8
0
100
AcDbBlockEnd
  0
BLOCK
  5
C9
330
54
100
AcDbEntity
  8
0
100
AcDbBlockBegin
  2
14
 70
     2
 10
0.0
 20
0.0
 30
0.0
  3
14
  1

  0
LWPOLYLINE
  5
55
330
54
100
AcDbEntity
  8
A
  6
EPAIS
 62
     9
100
AcDbPolyline
 90
        5
 70
     0
 43
0.0
 10
0.0
 20
0.0
 10
0.0
 20
20.0
 10
297.0
 20
20.0
 10
297.0
 20
0.0
 10
0.0
 20
0.0
  0
LWPOLYLINE
  5
5D
330
54
100
AcDbEntity
  8
A
  6
EPAIS
 62
     9
100
AcDbPolyline
 90
        5
 70
     0
 43
0.0
 10
140.0
 20
0.0
 10
140.0
 20
20.0
 10
203.0
 20
20.0
 10
203.0
 20
0.0
 10
140.0
 20
0.0
  0
LWPOLYLINE
  5
64
330
54
100
AcDbEntity
  8
A
  6
EPAIS
 62
     9
100
AcDbPolyline
 90
        5
 70
     0
 43
0.0
 10
202.9814453125
 20
20.0
 10
202.9814453125
 20
0.0
 10
239.9814453124999
 20
0.0
 10
239.9814453124999
 20
20.0
 10
202.9814453125
 20
20.0
  0
LWPOLYLINE
  5
6B
330
54
100
AcDbEntity
  8
A
  6
EPAIS
 62
     9
100
AcDbPolyline
 90
        5
 70
     0
 43
0.0
 10
140.0
 20
20.0
 10
140.0
 20
13.5
 10
240.0
 20
13.5
 10
240.0
 20
20.0
 10
140.0
 20
20.0
  0
LINE
  5
72
330
54
100
AcDbEntity
  8
A
  6
MOYEN
 62
     4
100
AcDbLine
 10
140.0
 20
10.0
 30
0.0
 11
240.0
 21
10.0
 31
0.0
  0
LINE
  5
73
330
54
100
AcDbEntity
  8
A
  6
MOYEN
 62
     4
100
AcDbLine
 10
140.0
 20
7.5
 30
0.0
 11
240.0
 21
7.5
 31
0.0
  0
LINE
  5
74
330
54
100
AcDbEntity
  8
A
  6
MOYEN
 62
     4
100
AcDbLine
 10
240.0
 20
5.0
 30
0.0
 11
140.0
 21
5.0
 31
0.0
  0
LINE
  5
75
330
54
100
AcDbEntity
  8
A
  6
MOYEN
 62
     4
100
AcDbLine
 10
140.0
 20
2.5
 30
0.0
 11
240.0
 21
2.5
 31
0.0
  0
LINE
  5
76
330
54
100
AcDbEntity
  8
A
  6
EPAIS
 62
     9
100
AcDbLine
 10
240.0
 20
5.0
 30
0.0
 11
297.0
 21
5.0
 31
0.0
  0
LINE
  5
77
330
54
100
AcDbEntity
  8
A
  6
MOYEN
 62
     4
100
AcDbLine
 10
171.5
 20
20.0
 30
0.0
 11
171.5
 21
13.5
 31
0.0
  0
LINE
  5
78
330
54
100
AcDbEntity
  8
A
  6
MOYEN
 62
     4
100
AcDbLine
 10
221.4999999999999
 20
13.5
 30
0.0
 11
221.4999999999999
 21
0.0
 31
0.0
  0
IMAGE
  5
7C
330
54
100
AcDbEntity
  8
A
  6
FIN
 62
     0
 92
      140
310
8C000000010000008400000006000000050000000000000078756F400000805613281A4000000000000000000000000078756F4000000000CA6E32400000000000000000000004DFFDE1714000000000CA6E32400000000000000000000004DFFDE171400000805613281A4000000000000000000000000078756F40000080
310
5613281A400000000000000000
100
AcDbRasterImage
 90
        0
 10
251.6708984375
 20
6.53913626819849
 30
0.0
 11
0.0938789695501328
 21
0.0
 31
0.0
 12
0.0
 22
0.0868148431181908
 32
0.0
 13
367.0
 23
137.0
340
7A
 70
     3
280
     0
281
    50
282
    50
283
     0
360
7D
 71
     1
 91
        2
 14
-0.5
 24
-0.5
 14
366.5
 24
136.4999999999999
  0
ATTDEF
  5
7E
330
54
100
AcDbEntity
  8
A
  6
FIN
 62
     7
100
AcDbText
 10
282.8171997070313
 20
1.607490219388689
 30
0.0
 40
1.992857142857142
  1

 41
0.9200000000000001
 72
     2
 11
282.8171997070313
 21
2.60391879081726
 31
0.0
100
AcDbAttributeDefinition
  3

  2
$FOLNUM
 70
     0
 74
     2
  0
ATTDEF
  5
7F
330
54
100
AcDbEntity
  8
A
  6
FIN
 62
     7
100
AcDbText
 10
285.0936889648437
 20
1.664779342923845
 30
0.0
 40
1.992857142857142
  1

 41
0.9200000000000001
 11
285.0936889648437
 21
2.661207914352416
 31
0.0
100
AcDbAttributeDefinition
  3

  2
$NBFOLGR
 70
     0
 74
     2
  0
ATTDEF
  5
80
330
54
100
AcDbEntity
  8
A
  6
FIN
 62
     7
100
AcDbText
 10
221.9862518310546
 20
16.8684196472168
 30
0.0
 40
1.992857142857142
  1

 41
0.9200000000000001
 72
     4
 11
221.9862518310546
 21
16.8684196472168
 31
0.0
100
AcDbAttributeDefinition
  3

  2
$DOSSIER(N-1)
 70
     0
 74
     2
  0
ATTDEF
  5
81
330
54
100
AcDbEntity
  8
A
  6
FIN
 62
     7
100
AcDbText
 10
156.6351318359375
 20
15.96512309483119
 30
0.0
 40
1.992857142857142
  1

 41
0.9200000000000001
 11
156.6351318359375
 21
16.96155166625977
 31
0.0
100
AcDbAttributeDefinition
  3

  2
$FOLREALI
 70
     0
 74
     2
  0
ATTDEF
  5
82
330
54
100
AcDbEntity
  8
A
  6
FIN
 62
     7
100
AcDbText
 10
179.9422607421875
 20
15.98519030979701
 30
0.0
 40
1.992857142857142
  1

 41
0.9200000000000001
 11
179.9422607421875
 21
16.98161888122559
 31
0.0
100
AcDbAttributeDefinition
  3

  2
$REV_DATE:X
 70
     0
 74
     2
  0
ATTDEF
  5
83
330
54
100
AcDbEntity
  8
A
  6
FIN
 62
     7
100
AcDbText
 10
3.636573791503906
 20
12.95742307390485
 30
0.0
 40
3.321428571428572
  1

 41
0.9200000000000001
 11
3.636573791503906
 21
14.61813735961914
 31
0.0
100
AcDbAttributeDefinition
  3

  2
$DOSSIER(N-3)
 70
     0
 74
     2
  0
ATTDEF
  5
84
330
54
100
AcDbEntity
  8
A
  6
FIN
 62
     7
100
AcDbText
 10
3.618404388427733
 20
4.105261666434151
 30
0.0
 40
3.321428571428572
  1

 41
0.9200000000000001
 11
3.618404388427733
 21
5.765975952148437
 31
0.0
100
AcDbAttributeDefinition
  3

  2
$FOLTITRE
 70
     0
 74
     2
  0
ATTDEF
  5
85
330
54
100
AcDbEntity
  8
A
  6
FIN
 62
     7
100
AcDbText
 10
141.2790985107421
 20
8.208684866768972
 30
0.0
 40
1.328571428571428
  1

 41
0.9200000000000001
 11
141.2790985107421
 21
8.872970581054687
 31
0.0
100
AcDbAttributeDefinition
  3

  2
$REV_LIB:X
 70
     0
 74
     2
  0
ATTDEF
  5
86
330
54
100
AcDbEntity
  8
A
  6
FIN
 62
     7
100
AcDbText
 10
206.1279602050781
 20
8.217974608285086
 30
0.0
 40
1.328571428571428
  1

 41
0.9200000000000001
 11
206.1279602050781
 21
8.8822603225708
 31
0.0
100
AcDbAttributeDefinition
  3

  2
$REV_DATE:X
 70
     0
 74
     2
  0
ATTDEF
  5
87
330
54
100
AcDbEntity
  8
A
  6
FIN
 62
     7
100
AcDbText
 10
224.9319915771484
 20
8.217974608285086
 30
0.0
 40
1.328571428571428
  1

 41
0.9200000000000001
 11
224.9319915771484
 21
8.8822603225708
 31
0.0
100
AcDbAttributeDefinition
  3

  2
$REV_NOM:X
 70
     0
 74
     2
  0
ATTDEF
  5
88
330
54
100
AcDbEntity
  8
A
  6
FIN
 62
     7
100
AcDbText
 10
141.2750091552734
 20
5.786786978585379
 30
0.0
 40
1.328571428571428
  1

 41
0.9200000000000001
 11
141.2750091552734
 21
6.451072692871093
 31
0.0
100
AcDbAttributeDefinition
  3

  2
$REV_LIB:X+1
 70
     0
 74
     2
  0
ATTDEF
  5
89
330
54
100
AcDbEntity
  8
A
  6
FIN
 62
     7
100
AcDbText
 10
206.1238708496094
 20
5.796075766427176
 30
0.0
 40
1.328571428571428
  1

 41
0.9200000000000001
 11
206.1238708496094
 21
6.460361480712891
 31
0.0
100
AcDbAttributeDefinition
  3

  2
$REV_DATE:X+1
 70
     0
 74
     2
  0
ATTDEF
  5
8A
330
54
100
AcDbEntity
  8
A
  6
FIN
 62
     7
100
AcDbText
 10
224.9279022216796
 20
5.796075766427176
 30
0.0
 40
1.328571428571428
  1

 41
0.9200000000000001
 11
224.9279022216796
 21
6.460361480712891
 31
0.0
100
AcDbAttributeDefinition
  3

  2
$REV_NOM:X+1
 70
     0
 74
     2
  0
ATTDEF
  5
8B
330
54
100
AcDbEntity
  8
A
  6
FIN
 62
     7
100
AcDbText
 10
141.2959594726563
 20
3.234682743889944
 30
0.0
 40
1.328571428571428
  1

 41
0.9200000000000001
 11
141.2959594726563
 21
3.898968458175658
 31
0.0
100
AcDbAttributeDefinition
  3

  2
$REV_LIB:X+2
 70
     0
 74
     2
  0
ATTDEF
  5
8C
330
54
100
AcDbEntity
  8
A
  6
FIN
 62
     7
100
AcDbText
 10
206.1448211669921
 20
3.243971531731741
 30
0.0
 40
1.328571428571428
  1

 41
0.9200000000000001
 11
206.1448211669921
 21
3.908257246017456
 31
0.0
100
AcDbAttributeDefinition
  3

  2
$REV_DATE:X+2
 70
     0
 74
     2
  0
ATTDEF
  5
8D
330
54
100
AcDbEntity
  8
A
  6
FIN
 62
     7
100
AcDbText
 10
224.9488525390625
 20
3.243971531731741
 30
0.0
 40
1.328571428571428
  1

 41
0.9200000000000001
 11
224.9488525390625
 21
3.908257246017456
 31
0.0
100
AcDbAttributeDefinition
  3

  2
$REV_NOM:X+2
 70
     0
 74
     2
  0
ATTDEF
  5
8E
330
54
100
AcDbEntity
  8
A
  6
FIN
 62
     7
100
AcDbText
 10
141.2657165527344
 20
0.6825732639857697
 30
0.0
 40
1.328571428571428
  1

 41
0.9200000000000001
 11
141.2657165527344
 21
1.346858978271484
 31
0.0
100
AcDbAttributeDefinition
  3

  2
$REV_LIB:X+3
 70
     0
 74
     2
  0
ATTDEF
  5
8F
330
54
100
AcDbEntity
  8
A
  6
FIN
 62
     7
100
AcDbText
 10
206.1145782470703
 20
0.6918620518275666
 30
0.0
 40
1.328571428571428
  1

 41
0.9200000000000001
 11
206.1145782470703
 21
1.356147766113281
 31
0.0
100
AcDbAttributeDefinition
  3

  2
$REV_DATE:X+3
 70
     0
 74
     2
  0
ATTDEF
  5
90
330
54
100
AcDbEntity
  8
A
  6
FIN
 62
     7
100
AcDbText
 10
224.9186096191405
 20
0.6918620518275666
 30
0.0
 40
1.328571428571428
  1

 41
0.9200000000000001
 11
224.9186096191405
 21
1.356147766113281
 31
0.0
100
AcDbAttributeDefinition
  3

  2
$REV_NOM:X+3
 70
     0
 74
     2
  0
LINE
  5
91
330
54
100
AcDbEntity
  8
A
  6
FIN
 62
     7
100
AcDbLine
 10
0.0
 20
205.0
 30
0.0
 11
297.0
 21
205.0
 31
0.0
  0
TEXT
  5
93
330
54
100
AcDbEntity
  8
A
  6
FIN
 62
     7
100
AcDbText
 10
7.425001144409179
 20
205.5
 30
0.0
 40
2.657142857142857
  1
1
 41
0.9200000000000001
  7
ARIAL
100
AcDbText
  0
LINE
  5
94
330
54
100
AcDbEntity
  8
A
  6
FIN
 62
     7
100
AcDbLine
 10
14.85000133514403
 20
205.0
 30
0.0
 11
14.85000133514403
 21
210.0
 31
0.0
  0
TEXT
  5
95
330
54
100
AcDbEntity
  8
A
  6
FIN
 62
     7
100
AcDbText
 10
22.27500152587891
 20
205.5
 30
0.0
 40
2.657142857142857
  1
2
 41
0.9200000000000001
  7
ARIAL
100
AcDbText
  0
LINE
  5
96
330
54
100
AcDbEntity
  8
A
  6
FIN
 62
     7
100
AcDbLine
 10
29.70000267028808
 20
205.0
 30
0.0
 11
29.70000267028808
 21
210.0
 31
0.0
  0
TEXT
  5
97
330
54
100
AcDbEntity
  8
A
  6
FIN
 62
     7
100
AcDbText
 10
37.12500381469727
 20
205.5
 30
0.0
 40
2.657142857142857
  1
3
 41
0.9200000000000001
  7
ARIAL
100
AcDbText
  0
LINE
  5
98
330
54
100
AcDbEntity
  8
A
  6
FIN
 62
     7
100
AcDbLine
 10
44.55000305175781
 20
205.0
 30
0.0
 11
44.55000305175781
 21
210.0
 31
0.0
  0
TEXT
  5
99
330
54
100
AcDbEntity
  8
A
  6
FIN
 62
     7
100
AcDbText
 10
51.97500610351563
 20
205.5
 30
0.0
 40
2.657142857142857
  1
4
 41
0.9200000000000001
  7
ARIAL
100
AcDbText
  0
LINE
  5
9A
330
54
100
AcDbEntity
  8
A
  6
FIN
 62
     7
100
AcDbLine
 10
59.40000534057617
 20
205.0
 30
0.0
 11
59.40000534057617
 21
210.0
 31
0.0
  0
TEXT
  5
9B
330
54
100
AcDbEntity
  8
A
  6
FIN
 62
     7
100
AcDbText
 10
66.82500457763672
 20
205.5
 30
0.0
 40
2.657142857142857
  1
5
 41
0.9200000000000001
  7
ARIAL
100
AcDbText
  0
LINE
  5
9C
330
54
100
AcDbEntity
  8
A
  6
FIN
 62
     7
100
AcDbLine
 10
74.25000762939453
 20
205.0
 30
0.0
 11
74.25000762939453
 21
210.0
 31
0.0
  0
TEXT
  5
9D
330
54
100
AcDbEntity
  8
A
  6
FIN
 62
     7
100
AcDbText
 10
81.67500305175781
 20
205.5
 30
0.0
 40
2.657142857142857
  1
6
 41
0.9200000000000001
  7
ARIAL
100
AcDbText
  0
LINE
  5
9E
330
54
100
AcDbEntity
  8
A
  6
FIN
 62
     7
100
AcDbLine
 10
89.10000610351563
 20
205.0
 30
0.0
 11
89.10000610351563
 21
210.0
 31
0.0
  0
TEXT
  5
9F
330
54
100
AcDbEntity
  8
A
  6
FIN
 62
     7
100
AcDbText
 10
96.52500152587892
 20
205.5
 30
0.0
 40
2.657142857142857
  1
7
 41
0.9200000000000001
  7
ARIAL
100
AcDbText
  0
LINE
  5
A0
330
54
100
AcDbEntity
  8
A
  6
FIN
 62
     7
100
AcDbLine
 10
103.9500045776367
 20
205.0
 30
0.0
 11
103.9500045776367
 21
210.0
 31
0.0
  0
TEXT
  5
A1
330
54
100
AcDbEntity
  8
A
  6
FIN
 62
     7
100
AcDbText
 10
111.375
 20
205.5
 30
0.0
 40
2.657142857142857
  1
8
 41
0.9200000000000001
  7
ARIAL
100
AcDbText
  0
LINE
  5
A2
330
54
100
AcDbEntity
  8
A
  6
FIN
 62
     7
100
AcDbLine
 10
118.8000030517577
 20
205.0
 30
0.0
 11
118.8000030517577
 21
210.0
 31
0.0
  0
TEXT
  5
A3
330
54
100
AcDbEntity
  8
A
  6
FIN
 62
     7
100
AcDbText
 10
126.2250061035155
 20
205.5
 30
0.0
 40
2.657142857142857
  1
9
 41
0.9200000000000001
  7
ARIAL
100
AcDbText
  0
LINE
  5
A4
330
54
100
AcDbEntity
  8
A
  6
FIN
 62
     7
100
AcDbLine
 10
133.6500091552734
 20
205.0
 30
0.0
 11
133.6500091552734
 21
210.0
 31
0.0
  0
TEXT
  5
A5
330
54
100
AcDbEntity
  8
A
  6
FIN
 62
     7
100
AcDbText
 10
141.0750122070313
 20
205.5
 30
0.0
 40
2.657142857142857
  1
10
 41
0.9200000000000001
  7
ARIAL
100
AcDbText
  0
LINE
  5
A6
330
54
100
AcDbEntity
  8
A
  6
FIN
 62
     7
100
AcDbLine
 10
148.500015258789
 20
205.0
 30
0.0
 11
148.500015258789
 21
210.0
 31
0.0
  0
TEXT
  5
A7
330
54
100
AcDbEntity
  8
A
  6
FIN
 62
     7
100
AcDbText
 10
155.9250183105469
 20
205.5
 30
0.0
 40
2.657142857142857
  1
11
 41
0.9200000000000001
  7
ARIAL
100
AcDbText
  0
LINE
  5
A8
330
54
100
AcDbEntity
  8
A
  6
FIN
 62
     7
100
AcDbLine
 10
163.3500213623046
 20
205.0
 30
0.0
 11
163.3500213623046
 21
210.0
 31
0.0
  0
TEXT
  5
A9
330
54
100
AcDbEntity
  8
A
  6
FIN
 62
     7
100
AcDbText
 10
170.7750244140624
 20
205.5
 30
0.0
 40
2.657142857142857
  1
12
 41
0.9200000000000001
  7
ARIAL
100
AcDbText
  0
LINE
  5
AA
330
54
100
AcDbEntity
  8
A
  6
FIN
 62
     7
100
AcDbLine
 10
178.2000274658203
 20
205.0
 30
0.0
 11
178.2000274658203
 21
210.0
 31
0.0
  0
TEXT
  5
AB
330
54
100
AcDbEntity
  8
A
  6
FIN
 62
     7
100
AcDbText
 10
185.6250305175781
 20
205.5
 30
0.0
 40
2.657142857142857
  1
13
 41
0.9200000000000001
  7
ARIAL
100
AcDbText
  0
LINE
  5
AC
330
54
100
AcDbEntity
  8
A
  6
FIN
 62
     7
100
AcDbLine
 10
193.0500335693359
 20
205.0
 30
0.0
 11
193.0500335693359
 21
210.0
 31
0.0
  0
TEXT
  5
AD
330
54
100
AcDbEntity
  8
A
  6
FIN
 62
     7
100
AcDbText
 10
200.4750366210938
 20
205.5
 30
0.0
 40
2.657142857142857
  1
14
 41
0.9200000000000001
  7
ARIAL
100
AcDbText
  0
LINE
  5
AE
330
54
100
AcDbEntity
  8
A
  6
FIN
 62
     7
100
AcDbLine
 10
207.9000396728515
 20
205.0
 30
0.0
 11
207.9000396728515
 21
210.0
 31
0.0
  0
TEXT
  5
AF
330
54
100
AcDbEntity
  8
A
  6
FIN
 62
     7
100
AcDbText
 10
215.3250427246093
 20
205.5
 30
0.0
 40
2.657142857142857
  1
15
 41
0.9200000000000001
  7
ARIAL
100
AcDbText
  0
LINE
  5
B0
330
54
100
AcDbEntity
  8
A
  6
FIN
 62
     7
100
AcDbLine
 10
222.7500457763671
 20
205.0
 30
0.0
 11
222.7500457763671
 21
210.0
 31
0.0
  0
TEXT
  5
B1
330
54
100
AcDbEntity
  8
A
  6
FIN
 62
     7
100
AcDbText
 10
230.1750488281249
 20
205.5
 30
0.0
 40
2.657142857142857
  1
16
 41
0.9200000000000001
  7
ARIAL
100
AcDbText
  0
LINE
  5
B2
330
54
100
AcDbEntity
  8
A
  6
FIN
 62
     7
100
AcDbLine
 10
237.6000518798828
 20
205.0
 30
0.0
 11
237.6000518798828
 21
210.0
 31
0.0
  0
TEXT
  5
B3
330
54
100
AcDbEntity
  8
A
  6
FIN
 62
     7
100
AcDbText
 10
245.0250549316406
 20
205.5
 30
0.0
 40
2.657142857142857
  1
17
 41
0.9200000000000001
  7
ARIAL
100
AcDbText
  0
LINE
  5
B4
330
54
100
AcDbEntity
  8
A
  6
FIN
 62
     7
100
AcDbLine
 10
252.4500579833984
 20
205.0
 30
0.0
 11
252.4500579833984
 21
210.0
 31
0.0
  0
TEXT
  5
B5
330
54
100
AcDbEntity
  8
A
  6
FIN
 62
     7
100
AcDbText
 10
259.8750610351562
 20
205.5
 30
0.0
 40
2.657142857142857
  1
18
 41
0.9200000000000001
  7
ARIAL
100
AcDbText
  0
LINE
  5
B6
330
54
100
AcDbEntity
  8
A
  6
FIN
 62
     7
100
AcDbLine
 10
267.300048828125
 20
205.0
 30
0.0
 11
267.300048828125
 21
210.0
 31
0.0
  0
TEXT
  5
B7
330
54
100
AcDbEntity
  8
A
  6
FIN
 62
     7
100
AcDbText
 10
274.7250671386719
 20
205.5
 30
0.0
 40
2.657142857142857
  1
19
 41
0.9200000000000001
  7
ARIAL
100
AcDbText
  0
LINE
  5
B8
330
54
100
AcDbEntity
  8
A
  6
FIN
 62
     7
100
AcDbLine
 10
282.1500549316406
 20
205.0
 30
0.0
 11
282.1500549316406
 21
210.0
 31
0.0
  0
TEXT
  5
B9
330
54
100
AcDbEntity
  8
A
  6
FIN
 62
     7
100
AcDbText
 10
289.5750732421875
 20
205.5
 30
0.0
 40
2.657142857142857
  1
20
 41
0.9200000000000001
  7
ARIAL
100
AcDbText
  0
LINE
  5
BA
330
54
100
AcDbEntity
  8
A
  6
FIN
 62
     7
100
AcDbLine
 10
297.0000610351563
 20
205.0
 30
0.0
 11
297.0000610351563
 21
210.0
 31
0.0
  0
LWPOLYLINE
  5
BB
330
54
100
AcDbEntity
  8
A
  6
FIN
 62
     7
100
AcDbPolyline
 90
        5
 70
     0
 43
0.0
 10
0.0
 20
20.0
 10
0.0
 20
210.0
 10
297.0
 20
210.0
 10
297.0
 20
20.0
 10
0.0
 20
20.0
  0
LWPOLYLINE
  5
C2
330
54
100
AcDbEntity
  8
A
  6
FIN
 62
     7
100
AcDbPolyline
 90
        5
 70
     0
 43
0.0
 10
0.0
 20
0.0
 10
0.0
 20
210.0
 10
297.0
 20
210.0
 10
297.0
 20
0.0
 10
0.0
 20
0.0
  0
ENDBLK
  5
CA
330
54
100
AcDbEntity
  8
0
100
AcDbBlockEnd
  0
BLOCK
  5
18A
330
180
100
AcDbEntity
  8
0
100
AcDbBlockBegin
  2
004C0_000_0_3_1
 70
     2
 10
0.0
 20
0.0
 30
0.0
  3
004C0_000_0_3_1
  1

  0
ATTDEF
  5
181
330
180
100
AcDbEntity
  8
A
  6
FIN
 62
     3
100
AcDbText
 10
-4.204545474233043
 20
0.3503787808176693
 30
0.0
 40
1.280133883697645
  1

 41
0.9200000000000001
  7
ARIAL
 72
     4
 11
-4.204545474233043
 21
0.3503787808176693
 31
0.0
100
AcDbAttributeDefinition
  3

  2
$REPERE
 70
     0
 74
     2
  0
ATTDEF
  5
182
330
180
100
AcDbEntity
  8
A
  6
FIN
 62
     1
100
AcDbText
 10
1.751893877983093
 20
1.287642083854383
 30
0.0
 40
1.629261306524276
  1

 41
0.9200000000000001
  7
ARIAL
 11
1.751893877983093
 21
2.102272737116521
 31
0.0
100
AcDbAttributeDefinition
  3

  2
$NUM_EQUI
 70
     0
 74
     2
  0
ATTDEF
  5
183
330
180
100
AcDbEntity
  8
A
  6
FIN
 62
     1
100
AcDbText
 10
-3.854161185206976
 20
0.3504001610199339
 30
0.0
 40
1.280133883697645
  1

 41
0.9200000000000001
  7
ARIAL
 72
     4
 11
-3.854161185206976
 21
0.3504001610199339
 31
0.0
100
AcDbAttributeDefinition
  3

  2
$POS_REFCRO_1
 70
     0
 74
     2
  0
LINE
  5
184
330
180
100
AcDbEntity
  8
A
  6
CYAN
 62
     4
100
AcDbLine
 10
-7.007575511932372
 20
-1.401515123270677
 30
0.0
 11
-7.007575511932372
 21
1.401515123270677
 31
0.0
  0
LINE
  5
185
330
180
100
AcDbEntity
  8
A
  6
CYAN
 62
     4
100
AcDbLine
 10
-7.007575511932372
 20
1.401515123270677
 30
0.0
 11
-1.751893877983093
 21
1.401515123270677
 31
0.0
  0
LINE
  5
186
330
180
100
AcDbEntity
  8
A
  6
CYAN
 62
     4
100
AcDbLine
 10
-1.751893877983093
 20
1.401515123270677
 30
0.0
 11
0.0
 21
0.0
 31
0.0
  0
LINE
  5
187
330
180
100
AcDbEntity
  8
A
  6
CYAN
 62
     4
100
AcDbLine
 10
0.0
 20
0.0
 30
0.0
 11
-1.751893877983093
 21
-1.401515123270677
 31
0.0
  0
LINE
  5
188
330
180
100
AcDbEntity
  8
A
  6
CYAN
 62
     4
100
AcDbLine
 10
-1.751893877983093
 20
-1.401515123270677
 30
0.0
 11
-7.007575511932372
 21
-1.401515123270677
 31
0.0
  0
LINE
  5
189
330
180
100
AcDbEntity
  8
A
  6
CYAN
 62
     4
100
AcDbLine
 10
0.0
 20
0.0
 30
0.0
 11
0.7007575616353386
 21
0.0
 31
0.0
  0
ENDBLK
  5
18B
330
180
100
AcDbEntity
  8
0
100
AcDbBlockEnd
  0
BLOCK
  5
19E
330
195
100
AcDbEntity
  8
0
100
AcDbBlockBegin
  2
018C0_001_0_3_1
 70
     2
 10
0.0
 20
0.0
 30
0.0
  3
018C0_001_0_3_1
  1

  0
ATTDEF
  5
196
330
195
100
AcDbEntity
  8
A
  6
FIN
 62
     3
100
AcDbText
 10
-2.803030246541354
 20
-0.464251872444469
 30
0.0
 40
1.629261306524276
  1

 41
0.9200000000000001
  7
ARIAL
 72
     2
 11
-2.803030246541354
 21
0.3503787808176693
 31
0.0
100
AcDbAttributeDefinition
  3

  2
$REPERE
 70
     0
 74
     2
  0
ATTDEF
  5
197
330
195
100
AcDbEntity
  8
A
  6
FIN
 62
     1
100
AcDbText
 10
-3.503787755966186
 20
-0.4642304922422045
 30
0.0
 40
1.629261306524276
  1

 41
0.9200000000000001
  7
ARIAL
 72
     2
 11
-3.503787755966186
 21
0.3504001610199339
 31
0.0
100
AcDbAttributeDefinition
  3

  2
$POS_REFCRO_1
 70
     0
 74
     2
  0
LWPOLYLINE
  5
198
330
195
100
AcDbEntity
  8
A
  6
CYAN
 62
     4
100
AcDbPolyline
 90
        4
 70
     0
 43
0.0
 10
0.0
 20
0.0
 10
-1.681818189693216
 20
0.8409090948466086
 10
-1.681818189693216
 20
-0.8409090948466086
 10
0.0
 20
0.0
  0
ENDBLK
  5
19F
330
195
100
AcDbEntity
  8
0
100
AcDbBlockEnd
  0
BLOCK
  5
23A
330
1A4
100
AcDbEntity
  8
0
100
AcDbBlockBegin
  2
_I445_KNX_0_3_1
 70
     2
 10
0.0
 20
0.0
 30
0.0
  3
_I445_KNX_0_3_1
  1

  0
ATTDEF
  5
1A5
330
1A4
100
AcDbEntity
  8
A
  6
FIN
 62
     3
100
AcDbText
 10
-8.759469389915466
 20
-11.55874553637845
 30
0.0
 40
2.094764536959783
  1

 41
0.9200000000000001
  7
ARIAL
 72
     2
 11
-8.759469389915466
 21
-10.51136326789856
 31
0.0
100
AcDbAttributeDefinition
  3

  2
$ETIQUETTE
 70
     0
 74
     2
  0
ATTDEF
  5
1A6
330
1A4
100
AcDbEntity
  8
A
  6
FIN
 62
     3
100
AcDbText
 10
-8.759469389915466
 20
-8.288962084988964
 30
0.0
 40
1.86201292174203
  1

 41
0.9200000000000001
  7
ARIAL
 72
     2
 11
-8.759469389915466
 21
-7.357955624117948
 31
0.0
100
AcDbAttributeDefinition
  3

  2
$LOCALISATION
 70
     0
 74
     2
  0
ATTDEF
  5
1A7
330
1A4
100
AcDbEntity
  8
A
  6
FIN
 62
     3
100
AcDbText
 10
-8.759469389915466
 20
-5.485927870449143
 30
0.0
 40
1.86201292174203
  1

 41
0.9200000000000001
  7
ARIAL
 72
     2
 11
-8.759469389915466
 21
-4.554921409578128
 31
0.0
100
AcDbAttributeDefinition
  3

  2
$FONCTION
 70
     0
 74
     2
  0
ATTDEF
  5
1A8
330
1A4
100
AcDbEntity
  8
A
  6
FIN
 62
     1
100
AcDbText
 10
-8.759469389915466
 20
-19.73508319889059
 30
0.0
 40
1.629261306524276
  1

 41
0.9200000000000001
  7
ARIAL
 72
     2
 11
-8.759469389915466
 21
-18.92045254562845
 31
0.0
100
AcDbAttributeDefinition
  3

  2
$POS_REFCRO_1
 70
     0
 74
     2
  0
ATTDEF
  5
1A9
330
1A4
100
AcDbEntity
  8
A
  6
FIN
 62
     1
100
AcDbText
 10
-8.759469389915466
 20
-16.93204898435077
 30
0.0
 40
1.629261306524276
  1

 41
0.9200000000000001
  7
ARIAL
 72
     2
 11
-8.759469389915466
 21
-16.11741833108863
 31
0.0
100
AcDbAttributeDefinition
  3

  2
CODE
 70
     0
 74
     2
  0
ATTDEF
  5
1AA
330
1A4
100
AcDbEntity
  8
A
  6
FIN
 62
     1
100
AcDbText
 10
-8.759471060651662
 20
-22.18773061830005
 30
0.0
 40
1.629261306524276
  1

 41
0.9200000000000001
  7
ARIAL
 72
     2
 11
-8.759471060651662
 21
-21.37309996503791
 31
0.0
100
AcDbAttributeDefinition
  3

  2
SYMBOLE
 70
     0
 74
     2
  0
ATTDEF
  5
1AB
330
1A4
100
AcDbEntity
  8
A
  6
FIN
 62
     1
100
AcDbText
 10
-8.759469389915466
 20
-14.4794015649413
 30
0.0
 40
1.629261306524276
  1

 41
0.9200000000000001
  7
ARIAL
 72
     2
 11
-8.759469389915466
 21
-13.66477091167917
 31
0.0
100
AcDbAttributeDefinition
  3

  2
FABRICANT
 70
     0
 74
     2
  0
ATTDEF
  5
1AC
330
1A4
100
AcDbEntity
  8
A
  6
FIN
 62
     1
100
AcDbText
 10
-8.75946270697068
 20
-24.64038472065428
 30
0.0
 40
1.629261306524276
  1

 41
0.9200000000000001
  7
ARIAL
 72
     2
 11
-8.75946270697068
 21
-23.82575406739215
 31
0.0
100
AcDbAttributeDefinition
  3

  2
SERIE
 70
     0
 74
     2
  0
ATTDEF
  5
1AD
330
1A4
100
AcDbEntity
  8
A
  6
FIN
 62
     1
100
AcDbText
 10
0.0
 20
-2.452651387407925
 30
0.0
 40
1.512885498915399
  1

 41
0.9200000000000001
  7
ARIAL
 72
     4
 11
0.0
 21
-2.452651387407925
 31
0.0
100
AcDbAttributeDefinition
  3

  2
$PL:1
 70
     0
 74
     2
  0
ATTDEF
  5
1AE
330
1A4
100
AcDbEntity
  8
A
  6
FIN
 62
     1
100
AcDbText
 10
7.007575511932372
 20
-2.45265159624995
 30
0.0
 40
1.512885498915399
  1

 41
0.9200000000000001
  7
ARIAL
 72
     4
 11
7.007575511932372
 21
-2.45265159624995
 31
0.0
100
AcDbAttributeDefinition
  3

  2
$PL:2
 70
     0
 74
     2
  0
ATTDEF
  5
1AF
330
1A4
100
AcDbEntity
  8
A
  6
FIN
 62
     1
100
AcDbText
 10
14.01515102386475
 20
-2.45265159624995
 30
0.0
 40
1.512885498915399
  1

 41
0.9200000000000001
  7
ARIAL
 72
     4
 11
14.01515102386475
 21
-2.45265159624995
 31
0.0
100
AcDbAttributeDefinition
  3

  2
$PL:3
 70
     0
 74
     2
  0
ATTDEF
  5
1B0
330
1A4
100
AcDbEntity
  8
A
  6
FIN
 62
     1
100
AcDbText
 10
28.03030204772948
 20
-2.452651387407925
 30
0.0
 40
1.512885498915399
  1

 41
0.9200000000000001
  7
ARIAL
 72
     4
 11
28.03030204772948
 21
-2.452651387407925
 31
0.0
100
AcDbAttributeDefinition
  3

  2
$PL:4
 70
     0
 74
     2
  0
ATTDEF
  5
1B1
330
1A4
100
AcDbEntity
  8
A
  6
FIN
 62
     1
100
AcDbText
 10
35.03787755966187
 20
-2.452651387407925
 30
0.0
 40
1.512885498915399
  1

 41
0.9200000000000001
  7
ARIAL
 72
     4
 11
35.03787755966187
 21
-2.452651387407925
 31
0.0
100
AcDbAttributeDefinition
  3

  2
$PL:5
 70
     0
 74
     2
  0
ATTDEF
  5
1B2
330
1A4
100
AcDbEntity
  8
A
  6
FIN
 62
     1
100
AcDbText
 10
42.04545307159424
 20
-2.452651387407925
 30
0.0
 40
1.512885498915399
  1

 41
0.9200000000000001
  7
ARIAL
 72
     4
 11
42.04545307159424
 21
-2.452651387407925
 31
0.0
100
AcDbAttributeDefinition
  3

  2
$PL:6
 70
     0
 74
     2
  0
ATTDEF
  5
1B3
330
1A4
100
AcDbEntity
  8
A
  6
FIN
 62
     1
100
AcDbText
 10
56.06060409545897
 20
-2.452651387407925
 30
0.0
 40
1.512885498915399
  1

 41
0.9200000000000001
  7
ARIAL
 72
     4
 11
56.06060409545897
 21
-2.452651387407925
 31
0.0
100
AcDbAttributeDefinition
  3

  2
$PL:7
 70
     0
 74
     2
  0
ATTDEF
  5
1B4
330
1A4
100
AcDbEntity
  8
A
  6
FIN
 62
     1
100
AcDbText
 10
63.06817960739135
 20
-2.452651387407925
 30
0.0
 40
1.512885498915399
  1

 41
0.9200000000000001
  7
ARIAL
 72
     4
 11
63.06817960739135
 21
-2.452651387407925
 31
0.0
100
AcDbAttributeDefinition
  3

  2
$PL:8
 70
     0
 74
     2
  0
ATTDEF
  5
1B5
330
1A4
100
AcDbEntity
  8
A
  6
FIN
 62
     1
100
AcDbText
 10
70.07575511932373
 20
-2.452651387407925
 30
0.0
 40
1.512885498915399
  1

 41
0.9200000000000001
  7
ARIAL
 72
     4
 11
70.07575511932373
 21
-2.452651387407925
 31
0.0
100
AcDbAttributeDefinition
  3

  2
$PL:9
 70
     0
 74
     2
  0
ATTDEF
  5
1B6
330
1A4
100
AcDbEntity
  8
A
  6
FIN
 62
     1
100
AcDbText
 10
84.09090614318849
 20
-2.452651387407925
 30
0.0
 40
1.512885498915399
  1

 41
0.9200000000000001
  7
ARIAL
 72
     4
 11
84.09090614318849
 21
-2.452651387407925
 31
0.0
100
AcDbAttributeDefinition
  3

  2
$PL:10
 70
     0
 74
     2
  0
ATTDEF
  5
1B7
330
1A4
100
AcDbEntity
  8
A
  6
FIN
 62
     1
100
AcDbText
 10
91.09848165512085
 20
-2.452651387407925
 30
0.0
 40
1.512885498915399
  1

 41
0.9200000000000001
  7
ARIAL
 72
     4
 11
91.09848165512085
 21
-2.452651387407925
 31
0.0
100
AcDbAttributeDefinition
  3

  2
$PL:11
 70
     0
 74
     2
  0
ATTDEF
  5
1B8
330
1A4
100
AcDbEntity
  8
A
  6
FIN
 62
     1
100
AcDbText
 10
98.10605716705323
 20
-2.452651387407925
 30
0.0
 40
1.512885498915399
  1

 41
0.9200000000000001
  7
ARIAL
 72
     4
 11
98.10605716705323
 21
-2.452651387407925
 31
0.0
100
AcDbAttributeDefinition
  3

  2
$PL:12
 70
     0
 74
     2
  0
ATTDEF
  5
1B9
330
1A4
100
AcDbEntity
  8
A
  6
FIN
 62
     1
100
AcDbText
 10
112.121208190918
 20
-2.452651387407925
 30
0.0
 40
1.512885498915399
  1

 41
0.9200000000000001
  7
ARIAL
 72
     4
 11
112.121208190918
 21
-2.452651387407925
 31
0.0
100
AcDbAttributeDefinition
  3

  2
$PL:13
 70
     0
 74
     2
  0
ATTDEF
  5
1BA
330
1A4
100
AcDbEntity
  8
A
  6
FIN
 62
     1
100
AcDbText
 10
119.1287837028502
 20
-2.452651387407925
 30
0.0
 40
1.512885498915399
  1

 41
0.9200000000000001
  7
ARIAL
 72
     4
 11
119.1287837028502
 21
-2.452651387407925
 31
0.0
100
AcDbAttributeDefinition
  3

  2
$PL:14
 70
     0
 74
     2
  0
ATTDEF
  5
1BB
330
1A4
100
AcDbEntity
  8
A
  6
FIN
 62
     1
100
AcDbText
 10
126.1363592147827
 20
-2.452651387407925
 30
0.0
 40
1.512885498915399
  1

 41
0.9200000000000001
  7
ARIAL
 72
     4
 11
126.1363592147827
 21
-2.452651387407925
 31
0.0
100
AcDbAttributeDefinition
  3

  2
$PL:15
 70
     0
 74
     2
  0
ATTDEF
  5
1BC
330
1A4
100
AcDbEntity
  8
A
  6
FIN
 62
     1
100
AcDbText
 10
140.1515102386474
 20
-2.452651387407925
 30
0.0
 40
1.512885498915399
  1

 41
0.9200000000000001
  7
ARIAL
 72
     4
 11
140.1515102386474
 21
-2.452651387407925
 31
0.0
100
AcDbAttributeDefinition
  3

  2
$PL:16
 70
     0
 74
     2
  0
ATTDEF
  5
1BD
330
1A4
100
AcDbEntity
  8
A
  6
FIN
 62
     1
100
AcDbText
 10
147.1590857505798
 20
-2.452651387407925
 30
0.0
 40
1.512885498915399
  1

 41
0.9200000000000001
  7
ARIAL
 72
     4
 11
147.1590857505798
 21
-2.452651387407925
 31
0.0
100
AcDbAttributeDefinition
  3

  2
$PL:17
 70
     0
 74
     2
  0
ATTDEF
  5
1BE
330
1A4
100
AcDbEntity
  8
A
  6
FIN
 62
     1
100
AcDbText
 10
154.1666612625121
 20
-2.452651387407925
 30
0.0
 40
1.512885498915399
  1

 41
0.9200000000000001
  7
ARIAL
 72
     4
 11
154.1666612625121
 21
-2.452651387407925
 31
0.0
100
AcDbAttributeDefinition
  3

  2
$PL:18
 70
     0
 74
     2
  0
ATTDEF
  5
1BF
330
1A4
100
AcDbEntity
  8
A
  6
FIN
 62
     1
100
AcDbText
 10
168.1818122863769
 20
-2.452651387407925
 30
0.0
 40
1.512885498915399
  1

 41
0.9200000000000001
  7
ARIAL
 72
     4
 11
168.1818122863769
 21
-2.452651387407925
 31
0.0
100
AcDbAttributeDefinition
  3

  2
$PL:19
 70
     0
 74
     2
  0
ATTDEF
  5
1C0
330
1A4
100
AcDbEntity
  8
A
  6
FIN
 62
     1
100
AcDbText
 10
175.1893877983093
 20
-2.452651387407925
 30
0.0
 40
1.512885498915399
  1

 41
0.9200000000000001
  7
ARIAL
 72
     4
 11
175.1893877983093
 21
-2.452651387407925
 31
0.0
100
AcDbAttributeDefinition
  3

  2
$PL:20
 70
     0
 74
     2
  0
ATTDEF
  5
1C1
330
1A4
100
AcDbEntity
  8
A
  6
FIN
 62
     1
100
AcDbText
 10
182.547350105372
 20
-2.45265159624995
 30
0.0
 40
1.512885498915399
  1

 41
0.9200000000000001
  7
ARIAL
 72
     4
 11
182.547350105372
 21
-2.45265159624995
 31
0.0
100
AcDbAttributeDefinition
  3

  2
$PL:21
 70
     0
 74
     2
  0
ATTDEF
  5
1C2
330
1A4
100
AcDbEntity
  8
A
  6
FIN
 62
     1
100
AcDbText
 10
196.2121143341064
 20
-2.45265159624995
 30
0.0
 40
1.512885498915399
  1

 41
0.9200000000000001
  7
ARIAL
 72
     4
 11
196.2121143341064
 21
-2.45265159624995
 31
0.0
100
AcDbAttributeDefinition
  3

  2
$PL:22
 70
     0
 74
     2
  0
ATTDEF
  5
1C3
330
1A4
100
AcDbEntity
  8
A
  6
FIN
 62
     1
100
AcDbText
 10
203.2196898460388
 20
-2.45265159624995
 30
0.0
 40
1.512885498915399
  1

 41
0.9200000000000001
  7
ARIAL
 72
     4
 11
203.2196898460388
 21
-2.45265159624995
 31
0.0
100
AcDbAttributeDefinition
  3

  2
$PL:23
 70
     0
 74
     2
  0
ATTDEF
  5
1C4
330
1A4
100
AcDbEntity
  8
A
  6
FIN
 62
     1
100
AcDbText
 10
210.2272653579711
 20
-2.45265159624995
 30
0.0
 40
1.512885498915399
  1

 41
0.9200000000000001
  7
ARIAL
 72
     4
 11
210.2272653579711
 21
-2.45265159624995
 31
0.0
100
AcDbAttributeDefinition
  3

  2
$PL:24
 70
     0
 74
     2
  0
ATTDEF
  5
1C5
330
1A4
100
AcDbEntity
  8
A
  6
FIN
 62
     1
100
AcDbText
 10
0.0
 20
-24.87689273321269
 30
0.0
 40
1.512885498915399
  1

 41
0.9200000000000001
  7
ARIAL
 72
     4
 11
0.0
 21
-24.87689273321269
 31
0.0
100
AcDbAttributeDefinition
  3

  2
$PL:25
 70
     0
 74
     2
  0
ATTDEF
  5
1C6
330
1A4
100
AcDbEntity
  8
A
  6
FIN
 62
     1
100
AcDbText
 10
7.007575511932372
 20
-24.87689273321269
 30
0.0
 40
1.512885498915399
  1

 41
0.9200000000000001
  7
ARIAL
 72
     4
 11
7.007575511932372
 21
-24.87689273321269
 31
0.0
100
AcDbAttributeDefinition
  3

  2
$PL:26
 70
     0
 74
     2
  0
ATTDEF
  5
1C7
330
1A4
100
AcDbEntity
  8
A
  6
FIN
 62
     1
100
AcDbText
 10
14.01515102386475
 20
-24.87689273321269
 30
0.0
 40
1.512885498915399
  1

 41
0.9200000000000001
  7
ARIAL
 72
     4
 11
14.01515102386475
 21
-24.87689273321269
 31
0.0
100
AcDbAttributeDefinition
  3

  2
$PL:27
 70
     0
 74
     2
  0
ATTDEF
  5
1C8
330
1A4
100
AcDbEntity
  8
A
  6
FIN
 62
     1
100
AcDbText
 10
21.02272653579712
 20
-24.87689273321269
 30
0.0
 40
1.512885498915399
  1

 41
0.9200000000000001
  7
ARIAL
 72
     4
 11
21.02272653579712
 21
-24.87689273321269
 31
0.0
100
AcDbAttributeDefinition
  3

  2
$PL:28
 70
     0
 74
     2
  0
LWPOLYLINE
  5
1C9
330
1A4
100
AcDbEntity
  8
A
  6
FIN
 62
     7
100
AcDbPolyline
 90
        5
 70
     0
 43
0.0
 10
-7.007575511932372
 20
0.0
 10
217.2348408699035
 20
0.0
 10
217.2348408699035
 20
-28.03030204772948
 10
-7.007575511932372
 20
-28.03030204772948
 10
-7.007575511932372
 20
0.0
  0
CIRCLE
  5
1D0
330
1A4
100
AcDbEntity
  8
A
  6
SYMBOL_C
 62
     4
100
AcDbCircle
 10
28.03030204772948
 20
-0.7007568828987587
 30
0.0
 40
0.7007568828987587
  0
CIRCLE
  5
1D1
330
1A4
100
AcDbEntity
  8
A
  6
SYMBOL_C
 62
     4
100
AcDbCircle
 10
35.03787755966187
 20
-0.7007568828987587
 30
0.0
 40
0.7007568828987587
  0
CIRCLE
  5
1D2
330
1A4
100
AcDbEntity
  8
A
  6
SYMBOL_C
 62
     4
100
AcDbCircle
 10
42.04545307159424
 20
-0.7007568828987587
 30
0.0
 40
0.7007568828987587
  0
CIRCLE
  5
1D3
330
1A4
100
AcDbEntity
  8
A
  6
SYMBOL_C
 62
     4
100
AcDbCircle
 10
63.06817960739135
 20
-0.7007568828987587
 30
0.0
 40
0.7007568828987587
  0
CIRCLE
  5
1D4
330
1A4
100
AcDbEntity
  8
A
  6
SYMBOL_C
 62
     4
100
AcDbCircle
 10
56.06060409545897
 20
-0.7007568828987587
 30
0.0
 40
0.7007568828987587
  0
CIRCLE
  5
1D5
330
1A4
100
AcDbEntity
  8
A
  6
SYMBOL_C
 62
     4
100
AcDbCircle
 10
70.07575511932373
 20
-0.7007568828987587
 30
0.0
 40
0.7007568828987587
  0
CIRCLE
  5
1D6
330
1A4
100
AcDbEntity
  8
A
  6
SYMBOL_C
 62
     4
100
AcDbCircle
 10
98.10605716705323
 20
-0.7007568828987587
 30
0.0
 40
0.7007568828987587
  0
CIRCLE
  5
1D7
330
1A4
100
AcDbEntity
  8
A
  6
SYMBOL_C
 62
     4
100
AcDbCircle
 10
84.09090614318849
 20
-0.7007568828987587
 30
0.0
 40
0.7007568828987587
  0
CIRCLE
  5
1D8
330
1A4
100
AcDbEntity
  8
A
  6
SYMBOL_C
 62
     4
100
AcDbCircle
 10
91.09848165512085
 20
-0.7007568828987587
 30
0.0
 40
0.7007568828987587
  0
CIRCLE
  5
1D9
330
1A4
100
AcDbEntity
  8
A
  6
SYMBOL_C
 62
     4
100
AcDbCircle
 10
112.121208190918
 20
-0.7007568828987587
 30
0.0
 40
0.7007568828987587
  0
CIRCLE
  5
1DA
330
1A4
100
AcDbEntity
  8
A
  6
SYMBOL_C
 62
     4
100
AcDbCircle
 10
119.1287837028502
 20
-0.7007568828987587
 30
0.0
 40
0.7007568828987587
  0
CIRCLE
  5
1DB
330
1A4
100
AcDbEntity
  8
A
  6
SYMBOL_C
 62
     4
100
AcDbCircle
 10
126.1363592147827
 20
-0.7007568828987587
 30
0.0
 40
0.7007568828987587
  0
CIRCLE
  5
1DC
330
1A4
100
AcDbEntity
  8
A
  6
SYMBOL_C
 62
     4
100
AcDbCircle
 10
140.1515102386474
 20
-0.7007568828987587
 30
0.0
 40
0.7007568828987587
  0
CIRCLE
  5
1DD
330
1A4
100
AcDbEntity
  8
A
  6
SYMBOL_C
 62
     4
100
AcDbCircle
 10
147.1590857505798
 20
-0.7007568828987587
 30
0.0
 40
0.7007568828987587
  0
CIRCLE
  5
1DE
330
1A4
100
AcDbEntity
  8
A
  6
SYMBOL_C
 62
     4
100
AcDbCircle
 10
154.1666612625121
 20
-0.7007568828987587
 30
0.0
 40
0.7007568828987587
  0
CIRCLE
  5
1DF
330
1A4
100
AcDbEntity
  8
A
  6
SYMBOL_C
 62
     4
100
AcDbCircle
 10
175.1893877983093
 20
-0.7007568828987587
 30
0.0
 40
0.7007568828987587
  0
CIRCLE
  5
1E0
330
1A4
100
AcDbEntity
  8
A
  6
SYMBOL_C
 62
     4
100
AcDbCircle
 10
168.1818122863769
 20
-0.7007568828987587
 30
0.0
 40
0.7007568828987587
  0
CIRCLE
  5
1E1
330
1A4
100
AcDbEntity
  8
A
  6
SYMBOL_C
 62
     4
100
AcDbCircle
 10
0.0
 20
-27.32954516483073
 30
0.0
 40
0.7007568828987587
  0
CIRCLE
  5
1E2
330
1A4
100
AcDbEntity
  8
A
  6
SYMBOL_C
 62
     4
100
AcDbCircle
 10
7.007575511932372
 20
-27.32954516483073
 30
0.0
 40
0.7007568828987587
  0
CIRCLE
  5
1E3
330
1A4
100
AcDbEntity
  8
A
  6
SYMBOL_C
 62
     4
100
AcDbCircle
 10
14.01515102386475
 20
-27.32954516483073
 30
0.0
 40
0.7007568828987587
  0
CIRCLE
  5
1E4
330
1A4
100
AcDbEntity
  8
A
  6
SYMBOL_C
 62
     4
100
AcDbCircle
 10
21.02272653579712
 20
-27.32954516483073
 30
0.0
 40
0.7007568828987587
  0
CIRCLE
  5
1E5
330
1A4
100
AcDbEntity
  8
A
  6
SYMBOL_C
 62
     4
100
AcDbCircle
 10
0.0
 20
-0.7007568828987587
 30
0.0
 40
0.7007568828987587
  0
CIRCLE
  5
1E6
330
1A4
100
AcDbEntity
  8
A
  6
SYMBOL_C
 62
     4
100
AcDbCircle
 10
7.007575511932372
 20
-0.7007568828987587
 30
0.0
 40
0.7007568828987587
  0
CIRCLE
  5
1E7
330
1A4
100
AcDbEntity
  8
A
  6
SYMBOL_C
 62
     4
100
AcDbCircle
 10
14.01515102386475
 20
-0.7007568828987587
 30
0.0
 40
0.7007568828987587
  0
CIRCLE
  5
1E8
330
1A4
100
AcDbEntity
  8
A
  6
SYMBOL_C
 62
     4
100
AcDbCircle
 10
182.1969633102417
 20
-0.7007568828987587
 30
0.0
 40
0.7007568828987587
  0
CIRCLE
  5
1E9
330
1A4
100
AcDbEntity
  8
A
  6
SYMBOL_C
 62
     4
100
AcDbCircle
 10
210.2272653579711
 20
-0.7007568828987587
 30
0.0
 40
0.7007568828987587
  0
CIRCLE
  5
1EA
330
1A4
100
AcDbEntity
  8
A
  6
SYMBOL_C
 62
     4
100
AcDbCircle
 10
196.2121143341064
 20
-0.7007568828987587
 30
0.0
 40
0.7007568828987587
  0
CIRCLE
  5
1EB
330
1A4
100
AcDbEntity
  8
A
  6
SYMBOL_C
 62
     4
100
AcDbCircle
 10
203.2196898460388
 20
-0.7007568828987587
 30
0.0
 40
0.7007568828987587
  0
LINE
  5
1EC
330
1A4
100
AcDbEntity
  8
A
  6
MOYEN
 62
     4
100
AcDbLine
 10
0.0
 20
-9.460226272814225
 30
0.0
 11
5.25568163394928
 21
-9.460226272814225
 31
0.0
  0
LINE
  5
1ED
330
1A4
100
AcDbEntity
  8
A
  6
MOYEN
 62
     4
100
AcDbLine
 10
8.803269410042956
 20
-9.460226272814225
 30
0.0
 11
5.25568163394928
 21
-11.21212015079732
 31
0.0
  0
LINE
  5
1EE
330
1A4
100
AcDbEntity
  8
A
  6
MOYEN
 62
     4
100
AcDbLine
 10
8.759469389915466
 20
-9.460226272814225
 30
0.0
 11
14.01515102386475
 21
-9.460226272814225
 31
0.0
  0
LINE
  5
1EF
330
1A4
100
AcDbEntity
  8
A
  6
MOYEN
 62
     4
100
AcDbLine
 10
0.0
 20
-9.460224602078028
 30
0.0
 11
0.0
 21
-7.007575511932372
 31
0.0
  0
LINE
  5
1F0
330
1A4
100
AcDbEntity
  8
A
  6
MOYEN
 62
     4
100
AcDbLine
 10
14.01515102386475
 20
-9.460226272814225
 30
0.0
 11
14.01515102386475
 21
-7.007575511932372
 31
0.0
  0
LINE
  5
1F1
330
1A4
100
AcDbEntity
  8
A
  6
MOYEN
 62
     4
100
AcDbLine
 10
28.03030204772948
 20
-9.460226272814225
 30
0.0
 11
33.28598368167876
 21
-9.460226272814225
 31
0.0
  0
LINE
  5
1F2
330
1A4
100
AcDbEntity
  8
A
  6
MOYEN
 62
     4
100
AcDbLine
 10
56.06060409545897
 20
-9.460226272814225
 30
0.0
 11
61.31628572940826
 21
-9.460226272814225
 31
0.0
  0
LINE
  5
1F3
330
1A4
100
AcDbEntity
  8
A
  6
MOYEN
 62
     4
100
AcDbLine
 10
84.09090614318849
 20
-9.460226272814225
 30
0.0
 11
89.34658777713776
 21
-9.460226272814225
 31
0.0
  0
LINE
  5
1F4
330
1A4
100
AcDbEntity
  8
A
  6
MOYEN
 62
     4
100
AcDbLine
 10
36.83357145777245
 20
-9.460226272814225
 30
0.0
 11
33.28598368167876
 21
-11.21212015079732
 31
0.0
  0
LINE
  5
1F5
330
1A4
100
AcDbEntity
  8
A
  6
MOYEN
 62
     4
100
AcDbLine
 10
64.86387350550194
 20
-9.460226272814225
 30
0.0
 11
61.31628572940826
 21
-11.21212015079732
 31
0.0
  0
LINE
  5
1F6
330
1A4
100
AcDbEntity
  8
A
  6
MOYEN
 62
     4
100
AcDbLine
 10
92.89417555323144
 20
-9.460226272814225
 30
0.0
 11
89.34658777713776
 21
-11.21212015079732
 31
0.0
  0
LINE
  5
1F7
330
1A4
100
AcDbEntity
  8
A
  6
MOYEN
 62
     4
100
AcDbLine
 10
36.78977143764496
 20
-9.460226272814225
 30
0.0
 11
42.04545307159424
 21
-9.460226272814225
 31
0.0
  0
LINE
  5
1F8
330
1A4
100
AcDbEntity
  8
A
  6
MOYEN
 62
     4
100
AcDbLine
 10
64.82007348537445
 20
-9.460226272814225
 30
0.0
 11
70.07575511932373
 21
-9.460226272814225
 31
0.0
  0
LINE
  5
1F9
330
1A4
100
AcDbEntity
  8
A
  6
MOYEN
 62
     4
100
AcDbLine
 10
92.85037553310393
 20
-9.460226272814225
 30
0.0
 11
98.10605716705323
 21
-9.460226272814225
 31
0.0
  0
LINE
  5
1FA
330
1A4
100
AcDbEntity
  8
A
  6
MOYEN
 62
     4
100
AcDbLine
 10
28.03030204772948
 20
-9.460224602078028
 30
0.0
 11
28.03030204772948
 21
-7.007575511932372
 31
0.0
  0
LINE
  5
1FB
330
1A4
100
AcDbEntity
  8
A
  6
MOYEN
 62
     4
100
AcDbLine
 10
56.06060409545897
 20
-9.460224602078028
 30
0.0
 11
56.06060409545897
 21
-7.007575511932372
 31
0.0
  0
LINE
  5
1FC
330
1A4
100
AcDbEntity
  8
A
  6
MOYEN
 62
     4
100
AcDbLine
 10
84.09090614318849
 20
-9.460224602078028
 30
0.0
 11
84.09090614318849
 21
-7.007575511932372
 31
0.0
  0
LINE
  5
1FD
330
1A4
100
AcDbEntity
  8
A
  6
MOYEN
 62
     4
100
AcDbLine
 10
42.04545307159424
 20
-9.460226272814225
 30
0.0
 11
42.04545307159424
 21
-7.007575511932372
 31
0.0
  0
LINE
  5
1FE
330
1A4
100
AcDbEntity
  8
A
  6
MOYEN
 62
     4
100
AcDbLine
 10
70.07575511932373
 20
-9.460226272814225
 30
0.0
 11
70.07575511932373
 21
-7.007575511932372
 31
0.0
  0
LINE
  5
1FF
330
1A4
100
AcDbEntity
  8
A
  6
MOYEN
 62
     4
100
AcDbLine
 10
98.10605716705323
 20
-9.460226272814225
 30
0.0
 11
98.10605716705323
 21
-7.007575511932372
 31
0.0
  0
LINE
  5
200
330
1A4
100
AcDbEntity
  8
A
  6
MOYEN
 62
     4
100
AcDbLine
 10
112.121208190918
 20
-9.460226272814225
 30
0.0
 11
117.3768898248673
 21
-9.460226272814225
 31
0.0
  0
LINE
  5
201
330
1A4
100
AcDbEntity
  8
A
  6
MOYEN
 62
     4
100
AcDbLine
 10
120.9244776009609
 20
-9.460226272814225
 30
0.0
 11
117.3768898248673
 21
-11.21212015079732
 31
0.0
  0
LINE
  5
202
330
1A4
100
AcDbEntity
  8
A
  6
MOYEN
 62
     4
100
AcDbLine
 10
120.8806775808333
 20
-9.460226272814225
 30
0.0
 11
126.1363592147827
 21
-9.460226272814225
 31
0.0
  0
LINE
  5
203
330
1A4
100
AcDbEntity
  8
A
  6
MOYEN
 62
     4
100
AcDbLine
 10
112.121208190918
 20
-9.460224602078028
 30
0.0
 11
112.121208190918
 21
-7.007575511932372
 31
0.0
  0
LINE
  5
204
330
1A4
100
AcDbEntity
  8
A
  6
MOYEN
 62
     4
100
AcDbLine
 10
126.1363592147827
 20
-9.460226272814225
 30
0.0
 11
126.1363592147827
 21
-7.007575511932372
 31
0.0
  0
LINE
  5
205
330
1A4
100
AcDbEntity
  8
A
  6
MOYEN
 62
     4
100
AcDbLine
 10
140.1515102386474
 20
-9.460226272814225
 30
0.0
 11
145.4071918725967
 21
-9.460226272814225
 31
0.0
  0
LINE
  5
206
330
1A4
100
AcDbEntity
  8
A
  6
MOYEN
 62
     4
100
AcDbLine
 10
168.1818122863769
 20
-9.460226272814225
 30
0.0
 11
173.4374939203262
 21
-9.460226272814225
 31
0.0
  0
LINE
  5
207
330
1A4
100
AcDbEntity
  8
A
  6
MOYEN
 62
     4
100
AcDbLine
 10
196.2121143341064
 20
-9.460226272814225
 30
0.0
 11
201.4677959680557
 21
-9.460226272814225
 31
0.0
  0
LINE
  5
208
330
1A4
100
AcDbEntity
  8
A
  6
MOYEN
 62
     4
100
AcDbLine
 10
148.9547796486904
 20
-9.460226272814225
 30
0.0
 11
145.4071918725967
 21
-11.21212015079732
 31
0.0
  0
LINE
  5
209
330
1A4
100
AcDbEntity
  8
A
  6
MOYEN
 62
     4
100
AcDbLine
 10
176.9850816964199
 20
-9.460226272814225
 30
0.0
 11
173.4374939203262
 21
-11.21212015079732
 31
0.0
  0
LINE
  5
20A
330
1A4
100
AcDbEntity
  8
A
  6
MOYEN
 62
     4
100
AcDbLine
 10
205.0153837441494
 20
-9.460226272814225
 30
0.0
 11
201.4677959680557
 21
-11.21212015079732
 31
0.0
  0
LINE
  5
20B
330
1A4
100
AcDbEntity
  8
A
  6
MOYEN
 62
     4
100
AcDbLine
 10
148.9109796285629
 20
-9.460226272814225
 30
0.0
 11
154.1666612625121
 21
-9.460226272814225
 31
0.0
  0
LINE
  5
20C
330
1A4
100
AcDbEntity
  8
A
  6
MOYEN
 62
     4
100
AcDbLine
 10
176.9412816762924
 20
-9.460226272814225
 30
0.0
 11
182.1969633102417
 21
-9.460226272814225
 31
0.0
  0
LINE
  5
20D
330
1A4
100
AcDbEntity
  8
A
  6
MOYEN
 62
     4
100
AcDbLine
 10
204.9715837240219
 20
-9.460226272814225
 30
0.0
 11
210.2272653579711
 21
-9.460226272814225
 31
0.0
  0
LINE
  5
20E
330
1A4
100
AcDbEntity
  8
A
  6
MOYEN
 62
     4
100
AcDbLine
 10
140.1515102386474
 20
-9.460224602078028
 30
0.0
 11
140.1515102386474
 21
-7.007575511932372
 31
0.0
  0
LINE
  5
20F
330
1A4
100
AcDbEntity
  8
A
  6
MOYEN
 62
     4
100
AcDbLine
 10
168.1818122863769
 20
-9.460224602078028
 30
0.0
 11
168.1818122863769
 21
-7.007575511932372
 31
0.0
  0
LINE
  5
210
330
1A4
100
AcDbEntity
  8
A
  6
MOYEN
 62
     4
100
AcDbLine
 10
196.2121143341064
 20
-9.460224602078028
 30
0.0
 11
196.2121143341064
 21
-7.007575511932372
 31
0.0
  0
LINE
  5
211
330
1A4
100
AcDbEntity
  8
A
  6
MOYEN
 62
     4
100
AcDbLine
 10
154.1666612625121
 20
-9.460226272814225
 30
0.0
 11
154.1666612625121
 21
-7.007575511932372
 31
0.0
  0
LINE
  5
212
330
1A4
100
AcDbEntity
  8
A
  6
MOYEN
 62
     4
100
AcDbLine
 10
182.1969633102417
 20
-9.460226272814225
 30
0.0
 11
182.1969633102417
 21
-7.007575511932372
 31
0.0
  0
LINE
  5
213
330
1A4
100
AcDbEntity
  8
A
  6
MOYEN
 62
     4
100
AcDbLine
 10
210.2272653579711
 20
-9.460226272814225
 30
0.0
 11
210.2272653579711
 21
-7.007575511932372
 31
0.0
  0
LINE
  5
214
330
1A4
100
AcDbEntity
  8
A
  6
FIN
 62
     7
100
AcDbLine
 10
0.0
 20
-21.02272653579712
 30
0.0
 11
21.02272653579712
 21
-21.02272653579712
 31
0.0
  0
TEXT
  5
215
330
1A4
100
AcDbEntity
  8
A
  6
FIN
 62
     1
100
AcDbText
 10
-0.540696608664212
 20
-6.026141651253606
 30
0.0
 40
1.512885498915399
  1
L
 41
0.9200000000000001
  7
ARIAL
 72
     4
 11
0.0
 21
-5.269698901795906
 31
0.0
100
AcDbText
  0
TEXT
  5
216
330
1A4
100
AcDbEntity
  8
A
  6
FIN
 62
     1
100
AcDbText
 10
13.313052860149
 20
-6.026141651253606
 30
0.0
 40
1.512885498915399
  1
N
 41
0.9200000000000001
  7
ARIAL
 72
     4
 11
14.0151514415488
 21
-5.269698901795906
 31
0.0
100
AcDbText
  0
TEXT
  5
217
330
1A4
100
AcDbEntity
  8
A
  6
FIN
 62
     1
100
AcDbText
 10
6.466879320952211
 20
-6.026141651253606
 30
0.0
 40
1.512885498915399
  1
L
 41
0.9200000000000001
  7
ARIAL
 72
     4
 11
7.007575929616423
 21
-5.269698901795906
 31
0.0
100
AcDbText
  0
TEXT
  5
218
330
1A4
100
AcDbEntity
  8
A
  6
FIN
 62
     1
100
AcDbText
 10
1.791960705478778
 20
-13.73447509029485
 30
0.0
 40
1.512885498915399
  1
CHANNEL A
 41
0.9200000000000001
  7
ARIAL
 72
     4
 11
7.3579552064339
 21
-12.97803234083716
 31
0.0
100
AcDbText
  0
TEXT
  5
219
330
1A4
100
AcDbEntity
  8
A
  6
FIN
 62
     1
100
AcDbText
 10
27.48960543906527
 20
-6.026141651253606
 30
0.0
 40
1.512885498915399
  1
L
 41
0.9200000000000001
  7
ARIAL
 72
     4
 11
28.03030204772948
 21
-5.269698901795906
 31
0.0
100
AcDbText
  0
TEXT
  5
21A
330
1A4
100
AcDbEntity
  8
A
  6
FIN
 62
     1
100
AcDbText
 10
55.51990748679476
 20
-6.026141651253606
 30
0.0
 40
1.512885498915399
  1
L
 41
0.9200000000000001
  7
ARIAL
 72
     4
 11
56.06060409545897
 21
-5.269698901795906
 31
0.0
100
AcDbText
  0
TEXT
  5
21B
330
1A4
100
AcDbEntity
  8
A
  6
FIN
 62
     1
100
AcDbText
 10
83.55020953452429
 20
-6.026141651253606
 30
0.0
 40
1.512885498915399
  1
L
 41
0.9200000000000001
  7
ARIAL
 72
     4
 11
84.09090614318849
 21
-5.269698901795906
 31
0.0
100
AcDbText
  0
TEXT
  5
21C
330
1A4
100
AcDbEntity
  8
A
  6
FIN
 62
     1
100
AcDbText
 10
41.34335616093063
 20
-6.026141651253606
 30
0.0
 40
1.512885498915399
  1
N
 41
0.9200000000000001
  7
ARIAL
 72
     4
 11
42.04545474233043
 21
-5.269698901795906
 31
0.0
100
AcDbText
  0
TEXT
  5
21D
330
1A4
100
AcDbEntity
  8
A
  6
FIN
 62
     1
100
AcDbText
 10
69.37365653792394
 20
-6.026141651253606
 30
0.0
 40
1.512885498915399
  1
N
 41
0.9200000000000001
  7
ARIAL
 72
     4
 11
70.07575511932373
 21
-5.269698901795906
 31
0.0
100
AcDbText
  0
TEXT
  5
21E
330
1A4
100
AcDbEntity
  8
A
  6
FIN
 62
     1
100
AcDbText
 10
97.40395858565342
 20
-6.026141651253606
 30
0.0
 40
1.512885498915399
  1
N
 41
0.9200000000000001
  7
ARIAL
 72
     4
 11
98.10605716705323
 21
-5.269698901795906
 31
0.0
100
AcDbText
  0
TEXT
  5
21F
330
1A4
100
AcDbEntity
  8
A
  6
FIN
 62
     1
100
AcDbText
 10
34.49718095099766
 20
-6.026141651253606
 30
0.0
 40
1.512885498915399
  1
L
 41
0.9200000000000001
  7
ARIAL
 72
     4
 11
35.03787755966187
 21
-5.269698901795906
 31
0.0
100
AcDbText
  0
TEXT
  5
220
330
1A4
100
AcDbEntity
  8
A
  6
FIN
 62
     1
100
AcDbText
 10
62.52748299872714
 20
-6.026141651253606
 30
0.0
 40
1.512885498915399
  1
L
 41
0.9200000000000001
  7
ARIAL
 72
     4
 11
63.06817960739135
 21
-5.269698901795906
 31
0.0
100
AcDbText
  0
TEXT
  5
221
330
1A4
100
AcDbEntity
  8
A
  6
FIN
 62
     1
100
AcDbText
 10
90.55778504645664
 20
-6.026141651253606
 30
0.0
 40
1.512885498915399
  1
L
 41
0.9200000000000001
  7
ARIAL
 72
     4
 11
91.09848165512085
 21
-5.269698901795906
 31
0.0
100
AcDbText
  0
TEXT
  5
222
330
1A4
100
AcDbEntity
  8
A
  6
FIN
 62
     1
100
AcDbText
 10
29.82368563520967
 20
-13.73447509029485
 30
0.0
 40
1.512885498915399
  1
CHANNEL B
 41
0.9200000000000001
  7
ARIAL
 72
     4
 11
35.38825600111125
 21
-12.97803234083716
 31
0.0
100
AcDbText
  0
TEXT
  5
223
330
1A4
100
AcDbEntity
  8
A
  6
FIN
 62
     1
100
AcDbText
 10
57.800346933325
 20
-13.73447509029485
 30
0.0
 40
1.512885498915399
  1
CHANNEL C
 41
0.9200000000000001
  7
ARIAL
 72
     4
 11
63.41855971957693
 21
-12.97803234083716
 31
0.0
100
AcDbText
  0
TEXT
  5
224
330
1A4
100
AcDbEntity
  8
A
  6
FIN
 62
     1
100
AcDbText
 10
85.83064898105451
 20
-13.73447509029485
 30
0.0
 40
1.512885498915399
  1
CHANNEL D
 41
0.9200000000000001
  7
ARIAL
 72
     4
 11
91.44886176730643
 21
-12.97803234083716
 31
0.0
100
AcDbText
  0
TEXT
  5
225
330
1A4
100
AcDbEntity
  8
A
  6
FIN
 62
     1
100
AcDbText
 10
111.5805115822538
 20
-6.026141651253606
 30
0.0
 40
1.512885498915399
  1
L
 41
0.9200000000000001
  7
ARIAL
 72
     4
 11
112.121208190918
 21
-5.269698901795906
 31
0.0
100
AcDbText
  0
TEXT
  5
226
330
1A4
100
AcDbEntity
  8
A
  6
FIN
 62
     1
100
AcDbText
 10
125.4342606333828
 20
-6.026141651253606
 30
0.0
 40
1.512885498915399
  1
N
 41
0.9200000000000001
  7
ARIAL
 72
     4
 11
126.1363592147827
 21
-5.269698901795906
 31
0.0
100
AcDbText
  0
TEXT
  5
227
330
1A4
100
AcDbEntity
  8
A
  6
FIN
 62
     1
100
AcDbText
 10
118.588087094186
 20
-6.026141651253606
 30
0.0
 40
1.512885498915399
  1
L
 41
0.9200000000000001
  7
ARIAL
 72
     4
 11
119.1287837028502
 21
-5.269698901795906
 31
0.0
100
AcDbText
  0
TEXT
  5
228
330
1A4
100
AcDbEntity
  8
A
  6
FIN
 62
     1
100
AcDbText
 10
113.9145867661895
 20
-13.73447509029485
 30
0.0
 40
1.512885498915399
  1
CHANNEL E
 41
0.9200000000000001
  7
ARIAL
 72
     4
 11
119.479157132091
 21
-12.97803234083716
 31
0.0
100
AcDbText
  0
TEXT
  5
229
330
1A4
100
AcDbEntity
  8
A
  6
FIN
 62
     1
100
AcDbText
 10
139.6108136299832
 20
-6.026141651253606
 30
0.0
 40
1.512885498915399
  1
L
 41
0.9200000000000001
  7
ARIAL
 72
     4
 11
140.1515102386474
 21
-5.269698901795906
 31
0.0
100
AcDbText
  0
TEXT
  5
22A
330
1A4
100
AcDbEntity
  8
A
  6
FIN
 62
     1
100
AcDbText
 10
167.6411156777127
 20
-6.026141651253606
 30
0.0
 40
1.512885498915399
  1
L
 41
0.9200000000000001
  7
ARIAL
 72
     4
 11
168.1818122863769
 21
-5.269698901795906
 31
0.0
100
AcDbText
  0
TEXT
  5
22B
330
1A4
100
AcDbEntity
  8
A
  6
FIN
 62
     1
100
AcDbText
 10
195.6714177254422
 20
-6.026141651253606
 30
0.0
 40
1.512885498915399
  1
L
 41
0.9200000000000001
  7
ARIAL
 72
     4
 11
196.2121143341064
 21
-5.269698901795906
 31
0.0
100
AcDbText
  0
TEXT
  5
22C
330
1A4
100
AcDbEntity
  8
A
  6
FIN
 62
     1
100
AcDbText
 10
153.4645626811123
 20
-6.026141651253606
 30
0.0
 40
1.512885498915399
  1
N
 41
0.9200000000000001
  7
ARIAL
 72
     4
 11
154.1666612625121
 21
-5.269698901795906
 31
0.0
100
AcDbText
  0
TEXT
  5
22D
330
1A4
100
AcDbEntity
  8
A
  6
FIN
 62
     1
100
AcDbText
 10
181.4948647288418
 20
-6.026141651253606
 30
0.0
 40
1.512885498915399
  1
N
 41
0.9200000000000001
  7
ARIAL
 72
     4
 11
182.1969633102417
 21
-5.269698901795906
 31
0.0
100
AcDbText
  0
TEXT
  5
22E
330
1A4
100
AcDbEntity
  8
A
  6
FIN
 62
     1
100
AcDbText
 10
209.5251667765714
 20
-6.026141651253606
 30
0.0
 40
1.512885498915399
  1
N
 41
0.9200000000000001
  7
ARIAL
 72
     4
 11
210.2272653579711
 21
-5.269698901795906
 31
0.0
100
AcDbText
  0
TEXT
  5
22F
330
1A4
100
AcDbEntity
  8
A
  6
FIN
 62
     1
100
AcDbText
 10
146.6183891419156
 20
-6.026141651253606
 30
0.0
 40
1.512885498915399
  1
L
 41
0.9200000000000001
  7
ARIAL
 72
     4
 11
147.1590857505798
 21
-5.269698901795906
 31
0.0
100
AcDbText
  0
TEXT
  5
230
330
1A4
100
AcDbEntity
  8
A
  6
FIN
 62
     1
100
AcDbText
 10
174.6486911896451
 20
-6.026141651253606
 30
0.0
 40
1.512885498915399
  1
L
 41
0.9200000000000001
  7
ARIAL
 72
     4
 11
175.1893877983093
 21
-5.269698901795906
 31
0.0
100
AcDbText
  0
TEXT
  5
231
330
1A4
100
AcDbEntity
  8
A
  6
FIN
 62
     1
100
AcDbText
 10
202.6789932373746
 20
-6.026141651253606
 30
0.0
 40
1.512885498915399
  1
L
 41
0.9200000000000001
  7
ARIAL
 72
     4
 11
203.2196898460388
 21
-5.269698901795906
 31
0.0
100
AcDbText
  0
TEXT
  5
232
330
1A4
100
AcDbEntity
  8
A
  6
FIN
 62
     1
100
AcDbText
 10
141.9994739746936
 20
-13.73447509029485
 30
0.0
 40
1.512885498915399
  1
CHANNEL F
 41
0.9200000000000001
  7
ARIAL
 72
     4
 11
147.5094524968758
 21
-12.97803234083716
 31
0.0
100
AcDbText
  0
TEXT
  5
233
330
1A4
100
AcDbEntity
  8
A
  6
FIN
 62
     1
100
AcDbText
 10
169.8674246263185
 20
-13.73447509029485
 30
0.0
 40
1.512885498915399
  1
CHANNEL G
 41
0.9200000000000001
  7
ARIAL
 72
     4
 11
175.5397545446053
 21
-12.97803234083716
 31
0.0
100
AcDbText
  0
TEXT
  5
234
330
1A4
100
AcDbEntity
  8
A
  6
FIN
 62
     1
100
AcDbText
 10
197.9518504890276
 20
-13.73447509029485
 30
0.0
 40
1.512885498915399
  1
CHANNEL H
 41
0.9200000000000001
  7
ARIAL
 72
     4
 11
203.5700632752795
 21
-12.97803234083716
 31
0.0
100
AcDbText
  0
TEXT
  5
235
330
1A4
100
AcDbEntity
  8
A
  6
FIN
 62
     1
100
AcDbText
 10
5.710665695937786
 20
-23.54508147529466
 30
0.0
 40
1.512885498915399
  1
BK
 41
0.9200000000000001
  7
ARIAL
 72
     4
 11
7.007578018036668
 21
-22.78863872583695
 31
0.0
100
AcDbText
  0
TEXT
  5
236
330
1A4
100
AcDbEntity
  8
A
  6
FIN
 62
     1
100
AcDbText
 10
-1.404197162799595
 20
-23.54508147529466
 30
0.0
 40
1.512885498915399
  1
RD
 41
0.9200000000000001
  7
ARIAL
 72
     4
 11
0.0
 21
-22.78863872583695
 31
0.0
100
AcDbText
  0
TEXT
  5
237
330
1A4
100
AcDbEntity
  8
A
  6
FIN
 62
     1
100
AcDbText
 10
19.72581839053872
 20
-23.54508147529466
 30
0.0
 40
1.512885498915399
  1
BK
 41
0.9200000000000001
  7
ARIAL
 72
     4
 11
21.0227307126376
 21
-22.78863872583695
 31
0.0
100
AcDbText
  0
TEXT
  5
238
330
1A4
100
AcDbEntity
  8
A
  6
FIN
 62
     1
100
AcDbText
 10
12.6109534433811
 20
-23.54508147529466
 30
0.0
 40
1.512885498915399
  1
RD
 41
0.9200000000000001
  7
ARIAL
 72
     4
 11
14.01515060618069
 21
-22.78863872583695
 31
0.0
100
AcDbText
  0
TEXT
  5
239
330
1A4
100
AcDbEntity
  8
A
  6
FIN
 62
     1
100
AcDbText
 10
6.566983881251557
 20
-20.02890993625413
 30
0.0
 40
1.512885498915399
  1
Bus KNX
 41
0.9200000000000001
  7
ARIAL
 72
     4
 11
10.51136326789856
 21
-19.28485096987077
 31
0.0
100
AcDbText
  0
ENDBLK
  5
23B
330
1A4
100
AcDbEntity
  8
0
100
AcDbBlockEnd
  0
BLOCK
  5
274
330
262
100
AcDbEntity
  8
0
100
AcDbBlockBegin
  2
R05C0N_R01_0_3_1
 70
     2
 10
0.0
 20
0.0
 30
0.0
  3
R05C0N_R01_0_3_1
  1

  0
ATTDEF
  5
263
330
262
100
AcDbEntity
  8
A
  6
FIN
 62
     3
100
AcDbText
 10
-2.62784081697464
 20
-4.200791374154674
 30
0.0
 40
2.094764536959783
  1

 41
0.9200000000000001
  7
ARIAL
 72
     2
 11
-2.62784081697464
 21
-3.153409105674783
 31
0.0
100
AcDbAttributeDefinition
  3

  2
$NOMCOMP
 70
     0
 74
     2
  0
ATTDEF
  5
264
330
262
100
AcDbEntity
  8
A
  6
FIN
 62
     1
100
AcDbText
 10
0.7007575616353386
 20
0.2946936191005609
 30
0.0
 40
1.512885498915399
  1

 41
0.9200000000000001
  7
ARIAL
 11
0.7007575616353386
 21
1.05113636855826
 31
0.0
100
AcDbAttributeDefinition
  3

  2
$PL:1
 70
     0
 74
     2
  0
ATTDEF
  5
265
330
262
100
AcDbEntity
  8
A
  6
FIN
 62
     1
100
AcDbText
 10
0.7007575616353386
 20
-8.639965200381618
 30
0.0
 40
1.512885498915399
  1

 41
0.9200000000000001
  7
ARIAL
 11
0.7007575616353386
 21
-7.883522450923919
 31
0.0
100
AcDbAttributeDefinition
  3

  2
$PL:2
 70
     0
 74
     2
  0
ATTDEF
  5
266
330
262
100
AcDbEntity
  8
A
  6
FIN
 62
     3
100
AcDbText
 10
-2.62784081697464
 20
2.222402644803767
 30
0.0
 40
1.86201292174203
  1

 41
0.9200000000000001
  7
ARIAL
 72
     2
 11
-2.62784081697464
 21
3.153409105674783
 31
0.0
100
AcDbAttributeDefinition
  3

  2
$FONCTION
 70
     0
 74
     2
  0
ATTDEF
  5
267
330
262
100
AcDbEntity
  8
A
  6
FIN
 62
     3
100
AcDbText
 10
-2.62784081697464
 20
-0.9310064608710154
 30
0.0
 40
1.86201292174203
  1

 41
0.9200000000000001
  7
ARIAL
 72
     2
 11
-2.62784081697464
 21
0.0
 31
0.0
100
AcDbAttributeDefinition
  3

  2
$LOCALISATION
 70
     0
 74
     2
  0
ATTDEF
  5
268
330
262
100
AcDbEntity
  8
A
  6
FIN
 62
     4
100
AcDbText
 10
-2.62784081697464
 20
-6.934621645442077
 30
0.0
 40
1.605986145002501
  1

 41
0.9200000000000001
  7
ARIAL
 72
     2
 11
-2.62784081697464
 21
-6.131628572940826
 31
0.0
100
AcDbAttributeDefinition
  3

  2
GRANDEUR
 70
     0
 74
     2
  0
ATTDEF
  5
269
330
262
100
AcDbEntity
  8
A
  6
FIN
 62
     1
100
AcDbText
 10
-6.657202082691582
 20
-12.90268771863382
 30
0.0
 40
1.629261306524276
  1

 41
0.9200000000000001
  7
ARIAL
 72
     2
 11
-6.657202082691582
 21
-12.08805706537169
 31
0.0
100
AcDbAttributeDefinition
  3

  2
$POS_REFCRO_1
 70
     0
 74
     2
  0
ATTDEF
  5
26A
330
262
100
AcDbEntity
  8
A
  6
FIN
 62
     4
100
AcDbText
 10
-7.357948941173162
 20
-14.54069780183635
 30
0.0
 40
1.629261306524276
  1

 41
0.9200000000000001
  7
ARIAL
 72
     4
 11
-7.357948941173162
 21
-14.54069780183635
 31
0.0
100
AcDbAttributeDefinition
  3

  2
$INTER_CROREF_1
 70
     0
 74
     2
  0
LINE
  5
26B
330
262
100
AcDbEntity
  8
A
  6
MOYEN
 62
     4
100
AcDbLine
 10
0.0
 20
0.0
 30
0.0
 11
0.0
 21
-1.051136159716236
 31
0.0
  0
LINE
  5
26C
330
262
100
AcDbEntity
  8
A
  6
MOYEN
 62
     4
100
AcDbLine
 10
0.0
 20
-5.956439352216137
 30
0.0
 11
0.0
 21
-7.007575511932372
 31
0.0
  0
LWPOLYLINE
  5
26D
330
262
100
AcDbEntity
  8
A
  6
SYMBOL_C
 62
     4
100
AcDbPolyline
 90
        5
 70
     0
 43
0.0
 10
-1.05113636855826
 20
-1.05113636855826
 10
-1.05113636855826
 20
-5.956439352216137
 10
1.05113636855826
 20
-5.956439352216137
 10
1.05113636855826
 20
-1.05113636855826
 10
-1.05113636855826
 20
-1.05113636855826
  0
ENDBLK
  5
275
330
262
100
AcDbEntity
  8
0
100
AcDbBlockEnd
  0
BLOCK
  5
2C6
330
280
100
AcDbEntity
  8
0
100
AcDbBlockBegin
  2
X12C0_X01_0_3_1
 70
     2
 10
0.0
 20
0.0
 30
0.0
  3
X12C0_X01_0_3_1
  1

  0
ATTDEF
  5
281
330
280
100
AcDbEntity
  8
A
  6
FIN
 62
     3
100
AcDbText
 10
1.401515123270677
 20
1.52164492653691
 30
0.0
 40
1.86201292174203
  1

 41
0.9200000000000001
  7
ARIAL
 11
1.401515123270677
 21
2.452651387407925
 31
0.0
100
AcDbAttributeDefinition
  3

  2
$BORNE
 70
     0
 74
     2
  0
ATTDEF
  5
282
330
280
100
AcDbEntity
  8
A
  6
FIN
 62
     3
100
AcDbText
 10
-1.401515123270677
 20
1.52164492653691
 30
0.0
 40
1.86201292174203
  1

 41
0.9200000000000001
  7
ARIAL
 72
     2
 11
-1.401515123270677
 21
2.452651387407925
 31
0.0
100
AcDbAttributeDefinition
  3

  2
$NOMCOMP
 70
     0
 74
     2
  0
ATTDEF
  5
283
330
280
100
AcDbEntity
  8
A
  6
FIN
 62
     1
100
AcDbText
 10
1.401515123270677
 20
-2.566524531245231
 30
0.0
 40
1.629261306524276
  1

 41
0.9200000000000001
  7
ARIAL
 11
1.401515123270677
 21
-1.751893877983093
 31
0.0
100
AcDbAttributeDefinition
  3

  2
$CABABOU
 70
     0
 74
     2
  0
ATTDEF
  5
284
330
280
100
AcDbEntity
  8
A
  6
FIN
 62
     1
100
AcDbText
 10
1.401515123270677
 20
-4.843986489086443
 30
0.0
 40
1.629261306524276
  1

 41
0.9200000000000001
  7
ARIAL
 11
1.401515123270677
 21
-4.029355835824305
 31
0.0
100
AcDbAttributeDefinition
  3

  2
$BRIN_ABOUTISSANT
 70
     0
 74
     2
  0
ATTDEF
  5
285
330
280
100
AcDbEntity
  8
A
  6
FIN
 62
     1
100
AcDbText
 10
1.401515123270677
 20
-7.121448864611704
 30
0.0
 40
1.629261306524276
  1

 41
0.9200000000000001
  7
ARIAL
 11
1.401515123270677
 21
-6.306818211349566
 31
0.0
100
AcDbAttributeDefinition
  3

  2
$CODCABA
 70
     0
 74
     2
  0
ATTDEF
  5
286
330
280
100
AcDbEntity
  8
A
  6
FIN
 62
     3
100
AcDbText
 10
-1.401515123270677
 20
4.441050980687142
 30
0.0
 40
1.629261306524276
  1

 41
0.9200000000000001
  7
ARIAL
 72
     2
 11
-1.401515123270677
 21
5.25568163394928
 31
0.0
100
AcDbAttributeDefinition
  3

  2
$LOCALISATION
 70
     0
 74
     2
  0
ATTDEF
  5
287
330
280
100
AcDbEntity
  8
A
  6
FIN
 62
     3
100
AcDbText
 10
-1.401515123270677
 20
6.893702576937092
 30
0.0
 40
1.629261306524276
  1

 41
0.9200000000000001
  7
ARIAL
 72
     2
 11
-1.401515123270677
 21
7.70833323019923
 31
0.0
100
AcDbAttributeDefinition
  3

  2
$FONCTION
 70
     0
 74
     2
  0
LINE
  5
288
330
280
100
AcDbEntity
  8
A
  6
MOYEN
 62
     4
100
AcDbLine
 10
0.0
 20
3.503787755966186
 30
0.0
 11
0.0
 21
1.05113636855826
 31
0.0
  0
LINE
  5
289
330
280
100
AcDbEntity
  8
A
  6
MOYEN
 62
     4
100
AcDbLine
 10
0.0
 20
-1.05113636855826
 30
0.0
 11
0.0
 21
-3.503787755966186
 31
0.0
  0
CIRCLE
  5
28A
330
280
100
AcDbEntity
  8
A
  6
MOYEN
 62
     4
100
AcDbCircle
 10
0.0
 20
0.0
 30
0.0
 40
1.05113636855826
  0
LINE
  5
28B
330
280
100
AcDbEntity
  8
A
  6
MOYEN
 62
     4
100
AcDbLine
 10
-0.2700768034267895
 20
-1.015442864877208
 30
0.0
 11
0.2700759680586913
 21
-1.015442864877208
 31
0.0
  0
LINE
  5
28C
330
280
100
AcDbEntity
  8
A
  6
MOYEN
 62
     4
100
AcDbLine
 10
0.3775593353672306
 20
-0.9804049163112578
 30
0.0
 11
-0.3775601446300758
 21
-0.9804049163112578
 31
0.0
  0
LINE
  5
28D
330
280
100
AcDbEntity
  8
A
  6
MOYEN
 62
     4
100
AcDbLine
 10
-0.4600779881120722
 20
-0.9453670721663199
 30
0.0
 11
0.4600772571649864
 21
-0.9453670721663199
 31
0.0
  0
LINE
  5
28E
330
280
100
AcDbEntity
  8
A
  6
MOYEN
 62
     4
100
AcDbLine
 10
0.5259788199099269
 20
-0.9103292280213821
 30
0.0
 11
-0.5259794986465068
 21
-0.9103292280213821
 31
0.0
  0
LINE
  5
28F
330
280
100
AcDbEntity
  8
A
  6
MOYEN
 62
     4
100
AcDbLine
 10
-0.5812765854892135
 20
-0.875291331665938
 30
0.0
 11
0.5812758545421275
 21
-0.875291331665938
 31
0.0
  0
LINE
  5
290
330
280
100
AcDbEntity
  8
A
  6
MOYEN
 62
     4
100
AcDbLine
 10
0.6305241454064117
 20
-0.840253435310494
 30
0.0
 11
-0.6305249285640038
 21
-0.840253435310494
 31
0.0
  0
LINE
  5
291
330
280
100
AcDbEntity
  8
A
  6
MOYEN
 62
     4
100
AcDbLine
 10
-0.674698828125969
 20
-0.805215591165556
 30
0.0
 11
0.674698097178883
 21
-0.805215591165556
 31
0.0
  0
LINE
  5
292
330
280
100
AcDbEntity
  8
A
  6
MOYEN
 62
     4
100
AcDbLine
 10
0.7149967763435683
 20
-0.7701776948101121
 30
0.0
 11
-0.7149975595011604
 21
-0.7701776948101121
 31
0.0
  0
LINE
  5
293
330
280
100
AcDbEntity
  8
A
  6
MOYEN
 62
     4
100
AcDbLine
 10
-0.7506593714049857
 20
-0.735139798454668
 30
0.0
 11
0.7506585882473935
 21
-0.735139798454668
 31
0.0
  0
LINE
  5
294
330
280
100
AcDbEntity
  8
A
  6
MOYEN
 62
     4
100
AcDbLine
 10
0.7832007701988069
 20
-0.7001019543097299
 30
0.0
 11
-0.7832016055669051
 21
-0.7001019543097299
 31
0.0
  0
LINE
  5
295
330
280
100
AcDbEntity
  8
A
  6
MOYEN
 62
     4
100
AcDbLine
 10
-0.8138418632006256
 20
-0.665064057954286
 30
0.0
 11
0.8138410278325274
 21
-0.665064057954286
 31
0.0
  0
LINE
  5
296
330
280
100
AcDbEntity
  8
A
  6
MOYEN
 62
     4
100
AcDbLine
 10
0.8406447530540184
 20
-0.6300261615988419
 30
0.0
 11
-0.8406455884221166
 21
-0.6300261615988419
 31
0.0
  0
LINE
  5
297
330
280
100
AcDbEntity
  8
A
  6
MOYEN
 62
     4
100
AcDbLine
 10
-0.8659802666323273
 20
-0.5949883174539039
 30
0.0
 11
0.865979431264229
 21
-0.5949883174539039
 31
0.0
  0
LINE
  5
298
330
280
100
AcDbEntity
  8
A
  6
MOYEN
 62
     4
100
AcDbLine
 10
0.8890571015044841
 20
-0.5599504210984599
 30
0.0
 11
-0.8890578324515701
 21
-0.5599504210984599
 31
0.0
  0
LINE
  5
299
330
280
100
AcDbEntity
  8
A
  6
MOYEN
 62
     4
100
AcDbLine
 10
-0.9100109527759485
 20
-0.5249125769535219
 30
0.0
 11
0.9100101174078504
 21
-0.5249125769535219
 31
0.0
  0
LINE
  5
29A
330
280
100
AcDbEntity
  8
A
  6
MOYEN
 62
     4
100
AcDbLine
 10
0.9296932693808628
 20
-0.4898746805980779
 30
0.0
 11
-0.9296941047489612
 21
-0.4898746805980779
 31
0.0
  0
LINE
  5
29B
330
280
100
AcDbEntity
  8
A
  6
MOYEN
 62
     4
100
AcDbLine
 10
-0.9469325519824424
 20
-0.4548367842426337
 30
0.0
 11
0.9469318210353565
 21
-0.4548367842426337
 31
0.0
  0
LINE
  5
29C
330
280
100
AcDbEntity
  8
A
  6
MOYEN
 62
     4
100
AcDbLine
 10
0.9634798365356331
 20
-0.4197989400976958
 30
0.0
 11
-0.9634805674827191
 21
-0.4197989400976958
 31
0.0
  0
LINE
  5
29D
330
280
100
AcDbEntity
  8
A
  6
MOYEN
 62
     4
100
AcDbLine
 10
-0.9774918833316448
 20
-0.3847610437422517
 30
0.0
 11
0.9774911523845586
 21
-0.3847610437422517
 31
0.0
  0
LINE
  5
29E
330
280
100
AcDbEntity
  8
A
  6
MOYEN
 62
     4
100
AcDbLine
 10
0.9911067125969381
 20
-0.3497231734920607
 30
0.0
 11
-0.9911075479650364
 21
-0.3497231734920607
 31
0.0
  0
LINE
  5
29F
330
280
100
AcDbEntity
  8
A
  6
MOYEN
 62
     4
100
AcDbLine
 10
-1.002249061133432
 20
-0.3146853032418697
 30
0.0
 11
1.002248225765334
 21
-0.3146853032418697
 31
0.0
  0
LINE
  5
2A0
330
280
100
AcDbEntity
  8
A
  6
MOYEN
 62
     4
100
AcDbLine
 10
1.013088275471276
 20
-0.2796474068864256
 30
0.0
 11
-1.013089006418362
 21
-0.2796474068864256
 31
0.0
  0
LINE
  5
2A1
330
280
100
AcDbEntity
  8
A
  6
MOYEN
 62
     4
100
AcDbLine
 10
-1.021621769436932
 20
-0.2446095366362346
 30
0.0
 11
1.021620934068834
 21
-0.2446095366362346
 31
0.0
  0
LINE
  5
2A2
330
280
100
AcDbEntity
  8
A
  6
MOYEN
 62
     4
100
AcDbLine
 10
1.029804095538288
 20
-0.2095716663860436
 30
0.0
 11
-1.029805035327399
 21
-0.2095716663860436
 31
0.0
  0
LINE
  5
2A3
330
280
100
AcDbEntity
  8
A
  6
MOYEN
 62
     4
100
AcDbLine
 10
-1.035915335282055
 20
-0.1745337961358526
 30
0.0
 11
1.035914395492945
 21
-0.1745337961358526
 31
0.0
  0
LINE
  5
2A4
330
280
100
AcDbEntity
  8
A
  6
MOYEN
 62
     4
100
AcDbLine
 10
1.041527233745093
 20
-0.1394959128330351
 30
0.0
 11
-1.041528173534204
 21
-0.1394959128330351
 31
0.0
  0
LINE
  5
2A5
330
280
100
AcDbEntity
  8
A
  6
MOYEN
 62
     4
100
AcDbLine
 10
-1.045342673112841
 20
-0.1044580360565308
 30
0.0
 11
1.045341837744742
 21
-0.1044580360565308
 31
0.0
  0
LINE
  5
2A6
330
280
100
AcDbEntity
  8
A
  6
MOYEN
 62
     4
100
AcDbLine
 10
1.048441888757353
 20
-0.0694201592800265
 30
0.0
 11
-1.048442724125451
 21
-0.0694201592800265
 31
0.0
  0
LINE
  5
2A7
330
280
100
AcDbEntity
  8
A
  6
MOYEN
 62
     4
100
AcDbLine
 10
-1.050037963930072
 20
-0.0343822825035223
 30
0.0
 11
1.050037024140962
 21
-0.0343822825035223
 31
0.0
  0
LINE
  5
2A8
330
280
100
AcDbEntity
  8
A
  6
MOYEN
 62
     4
100
AcDbLine
 10
1.050655405375692
 20
0.000655594272982
 30
0.0
 11
-1.050656449585815
 21
0.000655594272982
 31
0.0
  0
LINE
  5
2A9
330
280
100
AcDbEntity
  8
A
  6
MOYEN
 62
     4
100
AcDbLine
 10
-1.050063755920107
 20
0.0356934710494863
 30
0.0
 11
1.050062711709983
 21
0.0356934710494863
 31
0.0
  0
LINE
  5
2AA
330
280
100
AcDbEntity
  8
A
  6
MOYEN
 62
     4
100
AcDbLine
 10
1.048205792848583
 20
0.0707313478259906
 30
0.0
 11
-1.048206837058706
 21
0.0707313478259906
 31
0.0
  0
LINE
  5
2AB
330
280
100
AcDbEntity
  8
A
  6
MOYEN
 62
     4
100
AcDbLine
 10
-1.045415350137389
 20
0.1057692246024948
 30
0.0
 11
1.045414201506253
 21
0.1057692246024948
 31
0.0
  0
LINE
  5
2AC
330
280
100
AcDbEntity
  8
A
  6
MOYEN
 62
     4
100
AcDbLine
 10
1.041063291187527
 20
0.1408071013789991
 30
0.0
 11
-1.041064439818661
 21
0.1408071013789991
 31
0.0
  0
LINE
  5
2AD
330
280
100
AcDbEntity
  8
A
  6
MOYEN
 62
     4
100
AcDbLine
 10
-1.036019547452311
 20
0.1758449846818166
 30
0.0
 11
1.036018398821177
 21
0.1758449846818166
 31
0.0
  0
LINE
  5
2AE
330
280
100
AcDbEntity
  8
A
  6
MOYEN
 62
     4
100
AcDbLine
 10
1.029129326956927
 20
0.2108828549320077
 30
0.0
 11
-1.029130475588061
 21
0.2108828549320077
 31
0.0
  0
LINE
  5
2AF
330
280
100
AcDbEntity
  8
A
  6
MOYEN
 62
     4
100
AcDbLine
 10
-1.021730576131731
 20
0.2459207251821987
 30
0.0
 11
1.021729427500595
 21
0.2459207251821987
 31
0.0
  0
LINE
  5
2B0
330
280
100
AcDbEntity
  8
A
  6
MOYEN
 62
     4
100
AcDbLine
 10
1.012230456855383
 20
0.2809586215376427
 30
0.0
 11
-1.012231709907531
 21
0.2809586215376427
 31
0.0
  0
LINE
  5
2B1
330
280
100
AcDbEntity
  8
A
  6
MOYEN
 62
     4
100
AcDbLine
 10
-1.002320589526845
 20
0.3159964917878337
 30
0.0
 11
1.002319336474699
 21
0.3159964917878337
 31
0.0
  0
LINE
  5
2B2
330
280
100
AcDbEntity
  8
A
  6
MOYEN
 62
     4
100
AcDbLine
 10
0.9901086565615527
 20
0.3510343620380247
 30
0.0
 11
-0.9901099096137004
 21
0.3510343620380247
 31
0.0
  0
LINE
  5
2B3
330
280
100
AcDbEntity
  8
A
  6
MOYEN
 62
     4
100
AcDbLine
 10
-0.9774649427104762
 20
0.3860722322882157
 30
0.0
 11
0.9774635852373165
 21
0.3860722322882157
 31
0.0
  0
LINE
  5
2B4
330
280
100
AcDbEntity
  8
A
  6
MOYEN
 62
     4
100
AcDbLine
 10
0.9624039868460984
 20
0.4211101025384069
 30
0.0
 11
-0.9624054487402702
 21
0.4211101025384069
 31
0.0
  0
LINE
  5
2B5
330
280
100
AcDbEntity
  8
A
  6
MOYEN
 62
     4
100
AcDbLine
 10
-0.9467191154333391
 20
0.4561479988938509
 30
0.0
 11
0.946717653539167
 21
0.4561479988938509
 31
0.0
  0
LINE
  5
2B6
330
280
100
AcDbEntity
  8
A
  6
MOYEN
 62
     4
100
AcDbLine
 10
0.9286306811598874
 20
0.4911858952492949
 30
0.0
 11
-0.9286321430540596
 21
0.4911858952492949
 31
0.0
  0
LINE
  5
2B7
330
280
100
AcDbEntity
  8
A
  6
MOYEN
 62
     4
100
AcDbLine
 10
-0.909485192979112
 20
0.5262237393942329
 30
0.0
 11
0.9094836266639275
 21
0.5262237393942329
 31
0.0
  0
LINE
  5
2B8
330
280
100
AcDbEntity
  8
A
  6
MOYEN
 62
     4
100
AcDbLine
 10
0.8881398673326046
 20
0.561261635749677
 30
0.0
 11
-0.8881413292267765
 21
0.561261635749677
 31
0.0
  0
LINE
  5
2B9
330
280
100
AcDbEntity
  8
A
  6
MOYEN
 62
     4
100
AcDbLine
 10
-0.8649619007100532
 20
0.5962994798946149
 30
0.0
 11
0.8649602821843629
 21
0.5962994798946149
 31
0.0
  0
LINE
  5
2BA
330
280
100
AcDbEntity
  8
A
  6
MOYEN
 62
     4
100
AcDbLine
 10
0.8400663650669921
 20
0.631337376250059
 30
0.0
 11
-0.8400679835926823
 21
0.631337376250059
 31
0.0
  0
LINE
  5
2BB
330
280
100
AcDbEntity
  8
A
  6
MOYEN
 62
     4
100
AcDbLine
 10
-0.8120693165171495
 20
0.6663752726055029
 30
0.0
 11
0.8120674891494346
 21
0.6663752726055029
 31
0.0
  0
LINE
  5
2BC
330
280
100
AcDbEntity
  8
A
  6
MOYEN
 62
     4
100
AcDbLine
 10
0.7825617136036449
 20
0.701413116750441
 30
0.0
 11
-0.7825637498133844
 21
0.701413116750441
 31
0.0
  0
LINE
  5
2BD
330
280
100
AcDbEntity
  8
A
  6
MOYEN
 62
     4
100
AcDbLine
 10
-0.7493336944435676
 20
0.736451013105885
 30
0.0
 11
0.749331606023322
 21
0.736451013105885
 31
0.0
  0
LINE
  5
2BE
330
280
100
AcDbEntity
  8
A
  6
MOYEN
 62
     4
100
AcDbLine
 10
0.7129779527026266
 20
0.771488857250823
 30
0.0
 11
-0.7129802499648968
 21
0.771488857250823
 31
0.0
  0
LINE
  5
2BF
330
280
100
AcDbEntity
  8
A
  6
MOYEN
 62
     4
100
AcDbLine
 10
-0.6735903990806023
 20
0.8065267536062671
 30
0.0
 11
0.6735877885552953
 21
0.8065267536062671
 31
0.0
  0
LINE
  5
2C0
330
280
100
AcDbEntity
  8
A
  6
MOYEN
 62
     4
100
AcDbLine
 10
0.6294237045684845
 20
0.841564649961711
 30
0.0
 11
-0.6294263150937916
 21
0.841564649961711
 31
0.0
  0
LINE
  5
2C1
330
280
100
AcDbEntity
  8
A
  6
MOYEN
 62
     4
100
AcDbLine
 10
-0.5791126166412007
 20
0.876602494106649
 30
0.0
 11
0.5791096928528568
 21
0.876602494106649
 31
0.0
  0
LINE
  5
2C2
330
280
100
AcDbEntity
  8
A
  6
MOYEN
 62
     4
100
AcDbLine
 10
0.5220324365927774
 20
0.9116403382515869
 30
0.0
 11
-0.522035673644158
 21
0.9116403382515869
 31
0.0
  0
LINE
  5
2C3
330
280
100
AcDbEntity
  8
A
  6
MOYEN
 62
     4
100
AcDbLine
 10
-0.455447751585492
 20
0.9466782868175371
 30
0.0
 11
0.4554439402185437
 21
0.9466782868175371
 31
0.0
  0
LINE
  5
2C4
330
280
100
AcDbEntity
  8
A
  6
MOYEN
 62
     4
100
AcDbLine
 10
0.3746494350179859
 20
0.9817161309624752
 30
0.0
 11
-0.3746541600687916
 21
0.9817161309624752
 31
0.0
  0
LINE
  5
2C5
330
280
100
AcDbEntity
  8
A
  6
MOYEN
 62
     4
100
AcDbLine
 10
-0.2641558448726524
 20
1.016753975107412
 30
0.0
 11
0.2641483787702743
 21
1.016753975107412
 31
0.0
  0
ENDBLK
  5
2C7
330
280
100
AcDbEntity
  8
0
100
AcDbBlockEnd
  0
BLOCK
  5
2E1
330
2D0
100
AcDbEntity
  8
0
100
AcDbBlockBegin
  2
028C0_002_0_3_1
 70
     2
 10
0.0
 20
0.0
 30
0.0
  3
028C0_002_0_3_1
  1

  0
ATTDEF
  5
2D1
330
2D0
100
AcDbEntity
  8
A
  6
FIN
 62
     1
100
AcDbText
 10
-0.7007575616353386
 20
11.56500230022839
 30
0.0
 40
1.396509691306523
  1

 41
0.9200000000000001
  7
ARIAL
 72
     2
 11
-0.7007575616353386
 21
12.26325714588165
 31
0.0
100
AcDbAttributeDefinition
  3

  2
$PL:1
 70
     0
 74
     2
  0
ATTDEF
  5
2D2
330
2D0
100
AcDbEntity
  8
A
  6
FIN
 62
     1
100
AcDbText
 10
25.22727284539826
 20
22.07636556812695
 30
0.0
 40
1.396509691306523
  1

 41
0.9200000000000001
  7
ARIAL
 11
25.22727284539826
 21
22.77462041378021
 31
0.0
100
AcDbAttributeDefinition
  3

  2
$PL:2
 70
     0
 74
     2
  0
ATTDEF
  5
2D3
330
2D0
100
AcDbEntity
  8
A
  6
FIN
 62
     1
100
AcDbText
 10
49.75378546642537
 20
11.56500230022839
 30
0.0
 40
1.396509691306523
  1

 41
0.9200000000000001
  7
ARIAL
 11
49.75378546642537
 21
12.26325714588165
 31
0.0
100
AcDbAttributeDefinition
  3

  2
$PL:3
 70
     0
 74
     2
  0
ATTDEF
  5
2D4
330
2D0
100
AcDbEntity
  8
A
  6
FIN
 62
     1
100
AcDbText
 10
25.22727284539826
 20
-2.099769968923938
 30
0.0
 40
1.396509691306523
  1

 41
0.9200000000000001
  7
ARIAL
 11
25.22727284539826
 21
-1.401515123270677
 31
0.0
100
AcDbAttributeDefinition
  3

  2
$PL:4
 70
     0
 74
     2
  0
ATTDEF
  5
2D5
330
2D0
100
AcDbEntity
  8
A
  6
FIN
 62
     3
100
AcDbText
 10
3.503787755966186
 20
10.33992793841021
 30
0.0
 40
2.094764536959783
  1

 41
0.9200000000000001
  7
ARIAL
 11
3.503787755966186
 21
11.3873102068901
 31
0.0
100
AcDbAttributeDefinition
  3

  2
$NOMCOMP
 70
     0
 74
     2
  0
ATTDEF
  5
2D6
330
2D0
100
AcDbEntity
  8
A
  6
FIN
 62
     3
100
AcDbText
 10
3.503787755966186
 20
13.60971306053589
 30
0.0
 40
1.86201292174203
  1

 41
0.9200000000000001
  7
ARIAL
 11
3.503787755966186
 21
14.54071952140691
 31
0.0
100
AcDbAttributeDefinition
  3

  2
$LOCALISATION
 70
     0
 74
     2
  0
ATTDEF
  5
2D7
330
2D0
100
AcDbEntity
  8
A
  6
FIN
 62
     4
100
AcDbText
 10
3.503787755966186
 20
7.594460295203948
 30
0.0
 40
1.629261306524276
  1

 41
0.9200000000000001
  7
ARIAL
 11
3.503787755966186
 21
8.409090948466086
 31
0.0
100
AcDbAttributeDefinition
  3

  2
PARAMETRE
 70
     0
 74
     2
  0
ATTDEF
  5
2D8
330
2D0
100
AcDbEntity
  8
A
  6
FIN
 62
     3
100
AcDbText
 10
3.503787755966186
 20
16.58793231895991
 30
0.0
 40
1.86201292174203
  1

 41
0.9200000000000001
  7
ARIAL
 11
3.503787755966186
 21
17.51893877983093
 31
0.0
100
AcDbAttributeDefinition
  3

  2
$FONCTION
 70
     0
 74
     2
  0
ATTDEF
  5
2D9
330
2D0
100
AcDbEntity
  8
A
  6
FIN
 62
     1
100
AcDbText
 10
35.03787755966187
 20
14.54071952140691
 30
0.0
 40
1.396509691306523
  1

 41
0.9200000000000001
  7
ARIAL
 72
     4
 11
35.03787755966187
 21
14.54071952140691
 31
0.0
100
AcDbAttributeDefinition
  3

  2
$POS_REFCRO_1
 70
     0
 74
     2
  0
LWPOLYLINE
  5
2DA
330
2D0
100
AcDbEntity
  8
A
  6
FIN
 62
     7
100
AcDbPolyline
 90
        5
 70
     0
 43
0.0
 10
49.05302858352661
 20
21.02272653579712
 10
0.0
 20
21.02272653579712
 10
0.0
 20
0.0
 10
49.05302858352661
 20
0.0
 10
49.05302858352661
 20
21.02272653579712
  0
ENDBLK
  5
2E2
330
2D0
100
AcDbEntity
  8
0
100
AcDbBlockEnd
  0
BLOCK
  5
2FC
330
2EA
100
AcDbEntity
  8
0
100
AcDbBlockBegin
  2
H10C0N_H01_0_3_1
 70
     2
 10
0.0
 20
0.0
 30
0.0
  3
H10C0N_H01_0_3_1
  1

  0
ATTDEF
  5
2EB
330
2EA
100
AcDbEntity
  8
A
  6
FIN
 62
     3
100
AcDbText
 10
-3.503787755966186
 20
-4.200791374154674
 30
0.0
 40
2.094764536959783
  1

 41
0.9200000000000001
  7
ARIAL
 72
     2
 11
-3.503787755966186
 21
-3.153409105674783
 31
0.0
100
AcDbAttributeDefinition
  3

  2
$NOMCOMP
 70
     0
 74
     2
  0
ATTDEF
  5
2EC
330
2EA
100
AcDbEntity
  8
A
  6
FIN
 62
     3
100
AcDbText
 10
-3.503787755966186
 20
1.696834356103624
 30
0.0
 40
1.86201292174203
  1

 41
0.9200000000000001
  7
ARIAL
 72
     2
 11
-3.503787755966186
 21
2.62784081697464
 31
0.0
100
AcDbAttributeDefinition
  3

  2
$FONCTION
 70
     0
 74
     2
  0
ATTDEF
  5
2ED
330
2EA
100
AcDbEntity
  8
A
  6
FIN
 62
     1
100
AcDbText
 10
-5.25568163394928
 20
-9.574100043177605
 30
0.0
 40
1.629261306524276
  1

 41
0.9200000000000001
  7
ARIAL
 72
     2
 11
-5.25568163394928
 21
-8.759469389915466
 31
0.0
100
AcDbAttributeDefinition
  3

  2
UE
 70
     0
 74
     2
  0
ATTDEF
  5
2EE
330
2EA
100
AcDbEntity
  8
A
  6
FIN
 62
     1
100
AcDbText
 10
0.8759469389915466
 20
-0.2308745651785695
 30
0.0
 40
1.512885498915399
  1

 41
0.9200000000000001
  7
ARIAL
 11
0.8759469389915466
 21
0.5255681842791305
 31
0.0
100
AcDbAttributeDefinition
  3

  2
$PL:1
 70
     0
 74
     2
  0
ATTDEF
  5
2EF
330
2EA
100
AcDbEntity
  8
A
  6
FIN
 62
     1
100
AcDbText
 10
0.8759469389915466
 20
-8.114397538207549
 30
0.0
 40
1.512885498915399
  1

 41
0.9200000000000001
  7
ARIAL
 11
0.8759469389915466
 21
-7.35795478874985
 31
0.0
100
AcDbAttributeDefinition
  3

  2
$PL:2
 70
     0
 74
     2
  0
ATTDEF
  5
2F0
330
2EA
100
AcDbEntity
  8
A
  6
FIN
 62
     3
100
AcDbText
 10
-3.503787755966186
 20
-0.9310064608710154
 30
0.0
 40
1.86201292174203
  1

 41
0.9200000000000001
  7
ARIAL
 72
     2
 11
-3.503787755966186
 21
0.0
 31
0.0
100
AcDbAttributeDefinition
  3

  2
$LOCALISATION
 70
     0
 74
     2
  0
ATTDEF
  5
2F1
330
2EA
100
AcDbEntity
  8
A
  6
FIN
 62
     4
100
AcDbText
 10
-3.503787755966186
 20
-9.574100043177605
 30
0.0
 40
1.629261306524276
  1

 41
0.9200000000000001
  7
ARIAL
 72
     2
 11
-3.503787755966186
 21
-8.759469389915466
 31
0.0
100
AcDbAttributeDefinition
  3

  2
UNITE_UE
 70
     0
 74
     2
  0
ATTDEF
  5
2F2
330
2EA
100
AcDbEntity
  8
A
  6
FIN
 62
     1
100
AcDbText
 10
-3.503787755966186
 20
-6.946259226202965
 30
0.0
 40
1.629261306524276
  1

 41
0.9200000000000001
  7
ARIAL
 72
     2
 11
-3.503787755966186
 21
-6.131628572940826
 31
0.0
100
AcDbAttributeDefinition
  3

  2
COULEUR
 70
     0
 74
     2
  0
ATTDEF
  5
2F3
330
2EA
100
AcDbEntity
  8
A
  6
FIN
 62
     4
100
AcDbText
 10
-3.503787755966186
 20
-12.20194086015224
 30
0.0
 40
1.629261306524276
  1

 41
0.9200000000000001
  7
ARIAL
 72
     2
 11
-3.503787755966186
 21
-11.3873102068901
 31
0.0
100
AcDbAttributeDefinition
  3

  2
TYPE
 70
     0
 74
     2
  0
ATTDEF
  5
2F4
330
2EA
100
AcDbEntity
  8
A
  6
FIN
 62
     4
100
AcDbText
 10
3.503787755966186
 20
-4.14322897966161
 30
0.0
 40
1.629261306524276
  1

 41
0.9200000000000001
  7
ARIAL
 11
3.503787755966186
 21
-3.328598326399471
 31
0.0
100
AcDbAttributeDefinition
  3

  2
TEXTE_ETIQUETTE
 70
     0
 74
     2
  0
ATTDEF
  5
2F5
330
2EA
100
AcDbEntity
  8
A
  6
FIN
 62
     1
100
AcDbText
 10
-6.657202082691582
 20
-12.90268771863382
 30
0.0
 40
1.629261306524276
  1

 41
0.9200000000000001
  7
ARIAL
 72
     2
 11
-6.657202082691582
 21
-12.08805706537169
 31
0.0
100
AcDbAttributeDefinition
  3

  2
$POS_REFCRO_1
 70
     0
 74
     2
  0
ATTDEF
  5
2F6
330
2EA
100
AcDbEntity
  8
A
  6
FIN
 62
     4
100
AcDbText
 10
-7.357948941173162
 20
-14.54069780183635
 30
0.0
 40
1.629261306524276
  1

 41
0.9200000000000001
  7
ARIAL
 72
     4
 11
-7.357948941173162
 21
-14.54069780183635
 31
0.0
100
AcDbAttributeDefinition
  3

  2
$INTER_CROREF_1
 70
     0
 74
     2
  0
LINE
  5
2F7
330
2EA
100
AcDbEntity
  8
A
  6
SYMBOL_C
 62
     4
100
AcDbLine
 10
-1.716855929417143
 20
-1.751893877983093
 30
0.0
 11
1.681818085272205
 21
-5.290719478094217
 31
0.0
  0
LINE
  5
2F8
330
2EA
100
AcDbEntity
  8
A
  6
MOYEN
 62
     4
100
AcDbLine
 10
0.0
 20
0.0
 30
0.0
 11
0.0
 21
-1.051136159716236
 31
0.0
  0
LINE
  5
2F9
330
2EA
100
AcDbEntity
  8
A
  6
MOYEN
 62
     4
100
AcDbLine
 10
0.0
 20
-5.956439352216137
 30
0.0
 11
0.0
 21
-7.007575511932372
 31
0.0
  0
CIRCLE
  5
2FA
330
2EA
100
AcDbEntity
  8
A
  6
SYMBOL_C
 62
     4
100
AcDbCircle
 10
0.0
 20
-3.503787755966186
 30
0.0
 40
2.45265159624995
  0
LINE
  5
2FB
330
2EA
100
AcDbEntity
  8
A
  6
SYMBOL_C
 62
     4
100
AcDbLine
 10
1.716855929417143
 20
-1.751893877983093
 30
0.0
 11
-1.681818085272205
 21
-5.290719478094217
 31
0.0
  0
ENDBLK
  5
2FD
330
2EA
100
AcDbEntity
  8
0
100
AcDbBlockEnd
  0
BLOCK
  5
318
330
307
100
AcDbEntity
  8
0
100
AcDbBlockBegin
  2
H03C0N_H01_0_3_1
 70
     2
 10
0.0
 20
0.0
 30
0.0
  3
H03C0N_H01_0_3_1
  1

  0
ATTDEF
  5
308
330
307
100
AcDbEntity
  8
A
  6
FIN
 62
     3
100
AcDbText
 10
-1.751893877983093
 20
-4.200791374154674
 30
0.0
 40
2.094764536959783
  1

 41
0.9200000000000001
  7
ARIAL
 72
     2
 11
-1.751893877983093
 21
-3.153409105674783
 31
0.0
100
AcDbAttributeDefinition
  3

  2
$NOMCOMP
 70
     0
 74
     2
  0
ATTDEF
  5
309
330
307
100
AcDbEntity
  8
A
  6
FIN
 62
     3
100
AcDbText
 10
-1.751893877983093
 20
1.696834356103624
 30
0.0
 40
1.86201292174203
  1

 41
0.9200000000000001
  7
ARIAL
 72
     2
 11
-1.751893877983093
 21
2.62784081697464
 31
0.0
100
AcDbAttributeDefinition
  3

  2
$FONCTION
 70
     0
 74
     2
  0
ATTDEF
  5
30A
330
307
100
AcDbEntity
  8
A
  6
FIN
 62
     1
100
AcDbText
 10
-3.503787755966186
 20
-6.946259226202965
 30
0.0
 40
1.629261306524276
  1

 41
0.9200000000000001
  7
ARIAL
 72
     2
 11
-3.503787755966186
 21
-6.131628572940826
 31
0.0
100
AcDbAttributeDefinition
  3

  2
UE
 70
     0
 74
     2
  0
ATTDEF
  5
30B
330
307
100
AcDbEntity
  8
A
  6
FIN
 62
     1
100
AcDbText
 10
0.8759469389915466
 20
-0.2308745651785695
 30
0.0
 40
1.512885498915399
  1

 41
0.9200000000000001
  7
ARIAL
 11
0.8759469389915466
 21
0.5255681842791305
 31
0.0
100
AcDbAttributeDefinition
  3

  2
$PL:1
 70
     0
 74
     2
  0
ATTDEF
  5
30C
330
307
100
AcDbEntity
  8
A
  6
FIN
 62
     1
100
AcDbText
 10
0.8759469389915466
 20
-7.764018261390072
 30
0.0
 40
1.512885498915399
  1

 41
0.9200000000000001
  7
ARIAL
 11
0.8759469389915466
 21
-7.007575511932372
 31
0.0
100
AcDbAttributeDefinition
  3

  2
$PL:2
 70
     0
 74
     2
  0
ATTDEF
  5
30D
330
307
100
AcDbEntity
  8
A
  6
FIN
 62
     3
100
AcDbText
 10
-1.751893877983093
 20
-0.9310064608710154
 30
0.0
 40
1.86201292174203
  1

 41
0.9200000000000001
  7
ARIAL
 72
     2
 11
-1.751893877983093
 21
0.0
 31
0.0
100
AcDbAttributeDefinition
  3

  2
$LOCALISATION
 70
     0
 74
     2
  0
ATTDEF
  5
30E
330
307
100
AcDbEntity
  8
A
  6
FIN
 62
     4
100
AcDbText
 10
-1.751893877983093
 20
-6.946259226202965
 30
0.0
 40
1.629261306524276
  1

 41
0.9200000000000001
  7
ARIAL
 72
     2
 11
-1.751893877983093
 21
-6.131628572940826
 31
0.0
100
AcDbAttributeDefinition
  3

  2
UNITE_UE
 70
     0
 74
     2
  0
ATTDEF
  5
30F
330
307
100
AcDbEntity
  8
A
  6
FIN
 62
     1
100
AcDbText
 10
-1.751893877983093
 20
-9.574100043177605
 30
0.0
 40
1.629261306524276
  1

 41
0.9200000000000001
  7
ARIAL
 72
     2
 11
-1.751893877983093
 21
-8.759469389915466
 31
0.0
100
AcDbAttributeDefinition
  3

  2
TYPE
 70
     0
 74
     2
  0
ATTDEF
  5
310
330
307
100
AcDbEntity
  8
A
  6
FIN
 62
     1
100
AcDbText
 10
-6.657202082691582
 20
-12.90268771863382
 30
0.0
 40
1.629261306524276
  1

 41
0.9200000000000001
  7
ARIAL
 72
     2
 11
-6.657202082691582
 21
-12.08805706537169
 31
0.0
100
AcDbAttributeDefinition
  3

  2
$POS_REFCRO_1
 70
     0
 74
     2
  0
ATTDEF
  5
311
330
307
100
AcDbEntity
  8
A
  6
FIN
 62
     4
100
AcDbText
 10
-7.357948941173162
 20
-14.54069780183635
 30
0.0
 40
1.629261306524276
  1

 41
0.9200000000000001
  7
ARIAL
 72
     4
 11
-7.357948941173162
 21
-14.54069780183635
 31
0.0
100
AcDbAttributeDefinition
  3

  2
$INTER_CROREF_1
 70
     0
 74
     2
  0
LINE
  5
312
330
307
100
AcDbEntity
  8
A
  6
SYMBOL_C
 62
     4
100
AcDbLine
 10
3.744657793415853
 20
-2.454043528343661
 30
0.0
 11
0.0
 21
-2.452651387407925
 31
0.0
  0
LINE
  5
313
330
307
100
AcDbEntity
  8
A
  6
MOYEN
 62
     4
100
AcDbLine
 10
0.0
 20
-2.452651387407925
 30
0.0
 11
0.0042308237072365
 21
-0.0070702545573962
 31
0.0
  0
LINE
  5
314
330
307
100
AcDbEntity
  8
A
  6
SYMBOL_C
 62
     4
100
AcDbLine
 10
3.73095274439595
 20
-4.553532192430736
 30
0.0
 11
0.0
 21
-4.554924333366471
 31
0.0
  0
LINE
  5
315
330
307
100
AcDbEntity
  8
A
  6
MOYEN
 62
     4
100
AcDbLine
 10
0.0
 20
-4.554924333366471
 30
0.0
 11
0.0042308237072365
 21
-7.018414413007178
 31
0.0
  0
ARC
  5
316
330
307
100
AcDbEntity
  8
A
  6
SYMBOL_C
 62
     4
100
AcDbCircle
 10
5.956439495086669
 20
-3.503787994384766
 30
0.0
 40
2.452651739120482
100
AcDbArc
 50
90.00000333756268
 51
270.0000066803496
  0
LINE
  5
317
330
307
100
AcDbEntity
  8
A
  6
SYMBOL_C
 62
     4
100
AcDbLine
 10
5.956439352216137
 20
-1.05113636855826
 30
0.0
 11
5.956439352216137
 21
-5.956439352216137
 31
0.0
  0
ENDBLK
  5
319
330
307
100
AcDbEntity
  8
0
100
AcDbBlockEnd
  0
BLOCK
  5
37E
330
372
100
AcDbEntity
  8
0
100
AcDbBlockBegin
  2
012C0_001_0_3_1
 70
     2
 10
0.0
 20
0.0
 30
0.0
  3
012C0_001_0_3_1
  1

  0
ATTDEF
  5
373
330
372
100
AcDbEntity
  8
A
  6
FIN
 62
     3
100
AcDbText
 10
3.153409105674783
 20
-0.3478760648355923
 30
0.0
 40
1.396509691306523
  1

 41
0.9200000000000001
  7
ARIAL
 11
3.153409105674783
 21
0.3503787808176693
 31
0.0
100
AcDbAttributeDefinition
  3

  2
$REPERE
 70
     0
 74
     2
  0
ATTDEF
  5
374
330
372
100
AcDbEntity
  8
A
  6
FIN
 62
     1
100
AcDbText
 10
-1.751893877983093
 20
1.287642083854383
 30
0.0
 40
1.629261306524276
  1

 41
0.9200000000000001
  7
ARIAL
 72
     2
 11
-1.751893877983093
 21
2.102272737116521
 31
0.0
100
AcDbAttributeDefinition
  3

  2
$NUM_EQUI
 70
     0
 74
     2
  0
ATTDEF
  5
375
330
372
100
AcDbEntity
  8
A
  6
FIN
 62
     1
100
AcDbText
 10
3.854166197415566
 20
-0.4642304922422045
 30
0.0
 40
1.629261306524276
  1

 41
0.9200000000000001
  7
ARIAL
 11
3.854166197415566
 21
0.3504001610199339
 31
0.0
100
AcDbAttributeDefinition
  3

  2
$POS_REFCRO_1
 70
     0
 74
     2
  0
LWPOLYLINE
  5
376
330
372
100
AcDbEntity
  8
A
  6
MOYEN
 62
     4
100
AcDbPolyline
 90
        5
 70
     0
 43
0.0
 10
2.102272319432473
 20
0.0
 10
0.0
 20
0.8409090948466086
 10
0.4204541297392553
 20
0.0
 10
0.0
 20
-0.8409090948466086
 10
2.102272319432473
 20
0.0
  0
LINE
  5
37D
330
372
100
AcDbEntity
  8
A
  6
MOYEN
 62
     4
100
AcDbLine
 10
0.0
 20
0.0
 30
0.0
 11
0.4204541297392553
 21
0.0
 31
0.0
  0
ENDBLK
  5
37F
330
372
100
AcDbEntity
  8
0
100
AcDbBlockEnd
  0
BLOCK
  5
3AA
330
3A0
100
AcDbEntity
  8
0
100
AcDbBlockBegin
  2
002C0_000_0_3_1
 70
     2
 10
0.0
 20
0.0
 30
0.0
  3
002C0_000_0_3_1
  1

  0
ATTDEF
  5
3A1
330
3A0
100
AcDbEntity
  8
A
  6
FIN
 62
     3
100
AcDbText
 10
2.803030246541354
 20
0.3503787808176693
 30
0.0
 40
1.280133883697645
  1

 41
0.9200000000000001
  7
ARIAL
 72
     4
 11
2.803030246541354
 21
0.3503787808176693
 31
0.0
100
AcDbAttributeDefinition
  3

  2
$REPERE
 70
     0
 74
     2
  0
ATTDEF
  5
3A2
330
3A0
100
AcDbEntity
  8
A
  6
FIN
 62
     1
100
AcDbText
 10
-1.751893877983093
 20
1.287642083854383
 30
0.0
 40
1.629261306524276
  1

 41
0.9200000000000001
  7
ARIAL
 72
     2
 11
-1.751893877983093
 21
2.102272737116521
 31
0.0
100
AcDbAttributeDefinition
  3

  2
$NUM_EQUI
 70
     0
 74
     2
  0
ATTDEF
  5
3A3
330
3A0
100
AcDbEntity
  8
A
  6
FIN
 62
     1
100
AcDbText
 10
3.153414326725397
 20
0.3504001610199339
 30
0.0
 40
1.280133883697645
  1

 41
0.9200000000000001
  7
ARIAL
 72
     4
 11
3.153414326725397
 21
0.3504001610199339
 31
0.0
100
AcDbAttributeDefinition
  3

  2
$POS_REFCRO_1
 70
     0
 74
     2
  0
LINE
  5
3A4
330
3A0
100
AcDbEntity
  8
A
  6
MOYEN
 62
     4
100
AcDbLine
 10
0.0
 20
1.401515123270677
 30
0.0
 11
0.0
 21
-1.401515123270677
 31
0.0
  0
LINE
  5
3A5
330
3A0
100
AcDbEntity
  8
A
  6
MOYEN
 62
     4
100
AcDbLine
 10
0.0
 20
-1.401515123270677
 30
0.0
 11
5.25568163394928
 21
-1.401515123270677
 31
0.0
  0
LINE
  5
3A6
330
3A0
100
AcDbEntity
  8
A
  6
MOYEN
 62
     4
100
AcDbLine
 10
5.25568163394928
 20
-1.401515123270677
 30
0.0
 11
7.007575511932372
 21
0.0
 31
0.0
  0
LINE
  5
3A7
330
3A0
100
AcDbEntity
  8
A
  6
MOYEN
 62
     4
100
AcDbLine
 10
7.007575511932372
 20
0.0
 30
0.0
 11
5.25568163394928
 21
1.401515123270677
 31
0.0
  0
LINE
  5
3A8
330
3A0
100
AcDbEntity
  8
A
  6
MOYEN
 62
     4
100
AcDbLine
 10
5.25568163394928
 20
1.401515123270677
 30
0.0
 11
0.0
 21
1.401515123270677
 31
0.0
  0
LINE
  5
3A9
330
3A0
100
AcDbEntity
  8
A
  6
MOYEN
 62
     4
100
AcDbLine
 10
0.0
 20
0.0
 30
0.0
 11
-0.7007575616353386
 21
0.0
 31
0.0
  0
ENDBLK
  5
3AB
330
3A0
100
AcDbEntity
  8
0
100
AcDbBlockEnd
  0
ENDSEC
  0
SECTION
  2
ENTITIES
  0
INSERT
  5
CB
330
1F
100
AcDbEntity
  8
A
  6
FIN
 62
     0
100
AcDbBlockReference
  2
14
 10
0.0
 20
0.0
 30
0.0
  0
TEXT
  5
CC
330
1F
100
AcDbEntity
  8
A
  6
FIN
 62
     7
100
AcDbText
 10
265.3862031278786
 20
1.161709504600529
 30
0.0
 40
1.992857142857142
  1
FOLIO:
 41
0.9200000000000001
  7
ARIAL
 72
     4
 11
269.5845794677733
 21
2.158817768096924
 31
0.0
100
AcDbText
  0
TEXT
  5
CD
330
1F
100
AcDbEntity
  8
A
  6
FIN
 62
     7
100
AcDbText
 10
281.3927282589705
 20
1.10391902923584
 30
0.0
 40
1.992857142857142
  1
4
 41
0.9200000000000001
  7
ARIAL
 72
     2
 11
282.8171997070313
 21
1.10391902923584
 31
0.0
100
AcDbText
  0
TEXT
  5
CE
330
1F
100
AcDbEntity
  8
A
  6
FIN
 62
     7
100
AcDbText
 10
283.6761474609375
 20
1.090788841247559
 30
0.0
 40
1.992857142857142
  1
/
 41
0.9200000000000001
  7
ARIAL
100
AcDbText
  0
TEXT
  5
CF
330
1F
100
AcDbEntity
  8
A
  6
FIN
 62
     7
100
AcDbText
 10
285.0936889648437
 20
1.161208152770995
 30
0.0
 40
1.992857142857142
  1
5
 41
0.9200000000000001
  7
ARIAL
100
AcDbText
  0
TEXT
  5
D0
330
1F
100
AcDbEntity
  8
A
  6
FIN
 62
     7
100
AcDbText
 10
141.6080932617188
 20
15.69452667236328
 30
0.0
 40
1.992857142857142
  1
Etabli par:
 41
0.9200000000000001
  7
ARIAL
100
AcDbText
  0
TEXT
  5
D1
330
1F
100
AcDbEntity
  8
A
  6
FIN
 62
     7
100
AcDbText
 10
213.0204533226892
 20
15.39131184148407
 30
0.0
 40
1.992857142857142
  1
SEE-PROJECT
 41
0.9200000000000001
  7
ARIAL
 72
     4
 11
221.9862442016601
 21
16.38842010498047
 31
0.0
100
AcDbText
  0
TEXT
  5
D2
330
1F
100
AcDbEntity
  8
A
  6
FIN
 62
     7
100
AcDbText
 10
172.2350921630859
 20
15.77711868286133
 30
0.0
 40
1.992857142857142
  1
Date :
 41
0.9200000000000001
  7
ARIAL
100
AcDbText
  0
TEXT
  5
D3
330
1F
100
AcDbEntity
  8
A
  6
FIN
 62
     7
100
AcDbText
 10
179.9422607421875
 20
15.48161888122559
 30
0.0
 40
1.992857142857142
  1
23/09/2008
 41
0.9200000000000001
  7
ARIAL
100
AcDbText
  0
TEXT
  5
D5
330
1F
100
AcDbEntity
  8
A
  6
FIN
 62
     7
100
AcDbText
 10
3.618404388427733
 20
3.265975952148437
 30
0.0
 40
3.321428571428572
  1
SORTIES
 41
0.9200000000000001
  7
ARIAL
100
AcDbText
  0
TEXT
  5
D6
330
1F
100
AcDbEntity
  8
A
  6
FIN
 62
     7
100
AcDbText
 10
163.3501739501953
 20
10.57504653930664
 30
0.0
 40
1.992857142857142
  1
Modifications
 41
0.9200000000000001
  7
ARIAL
100
AcDbText
  0
TEXT
  5
D7
330
1F
100
AcDbEntity
  8
A
  6
FIN
 62
     7
100
AcDbText
 10
209.9400634765625
 20
10.40599346160889
 30
0.0
 40
1.992857142857142
  1
Date
 41
0.9200000000000001
  7
ARIAL
100
AcDbText
  0
TEXT
  5
D8
330
1F
100
AcDbEntity
  8
A
  6
FIN
 62
     7
100
AcDbText
 10
225.3760223388671
 20
10.5940065383911
 30
0.0
 40
1.992857142857142
  1
Etabli par
 41
0.9200000000000001
  7
ARIAL
100
AcDbText
  0
TEXT
  5
D9
330
1F
100
AcDbEntity
  8
A
  6
FIN
 62
     7
100
AcDbText
 10
141.2790985107421
 20
7.872970581054687
 30
0.0
 40
1.328571428571428
  1
Edition originale
 41
0.9200000000000001
  7
ARIAL
100
AcDbText
  0
TEXT
  5
DA
330
1F
100
AcDbEntity
  8
A
  6
FIN
 62
     7
100
AcDbText
 10
206.1279602050781
 20
7.8822603225708
 30
0.0
 40
1.328571428571428
  1
23/09/2008
 41
0.9200000000000001
  7
ARIAL
100
AcDbText
  0
TEXT
  5
DB
330
1F
100
AcDbEntity
  8
A
  6
FIN
 62
     7
100
AcDbText
 10
224.9320068359375
 20
7.8822603225708
 30
0.0
 40
1.328571428571428
  1
CB
 41
0.9200000000000001
  7
ARIAL
100
AcDbText
  0
TEXT
  5
DC
330
1F
100
AcDbEntity
  8
A
  6
FIN
 62
     7
100
AcDbText
 10
141.2750091552734
 20
5.451072692871093
 30
0.0
 40
1.328571428571428
  1
Modification circuit chauffage
 41
0.9200000000000001
  7
ARIAL
100
AcDbText
  0
TEXT
  5
DD
330
1F
100
AcDbEntity
  8
A
  6
FIN
 62
     7
100
AcDbText
 10
206.1238708496094
 20
5.460361480712891
 30
0.0
 40
1.328571428571428
  1
17/10/2008
 41
0.9200000000000001
  7
ARIAL
100
AcDbText
  0
TEXT
  5
DE
330
1F
100
AcDbEntity
  8
A
  6
FIN
 62
     7
100
AcDbText
 10
224.9279174804688
 20
5.460361480712891
 30
0.0
 40
1.328571428571428
  1
CB
 41
0.9200000000000001
  7
ARIAL
100
AcDbText
  0
TEXT
  5
DF
330
1F
100
AcDbEntity
  8
A
  6
FIN
 62
     7
100
AcDbText
 10
141.2959594726563
 20
2.898968696594238
 30
0.0
 40
1.328571428571428
  1
Modification sorties
 41
0.9200000000000001
  7
ARIAL
100
AcDbText
  0
TEXT
  5
E0
330
1F
100
AcDbEntity
  8
A
  6
FIN
 62
     7
100
AcDbText
 10
206.1448211669921
 20
2.908257484436035
 30
0.0
 40
1.328571428571428
  1
15/01/2009
 41
0.9200000000000001
  7
ARIAL
100
AcDbText
  0
TEXT
  5
E1
330
1F
100
AcDbEntity
  8
A
  6
FIN
 62
     7
100
AcDbText
 10
224.9488525390625
 20
2.908257484436035
 30
0.0
 40
1.328571428571428
  1
FA
 41
0.9200000000000001
  7
ARIAL
100
AcDbText
  0
LINE
  5
E2
330
1F
100
AcDbEntity
  8
A
  6
BLEU
 62
     5
100
AcDbLine
 10
52.55681633949279
 20
90.07575511932371
 30
0.0
 11
52.55681633949279
 21
191.6856000423431
 31
0.0
  0
TEXT
  5
E3
330
1F
100
AcDbEntity
  8
A
  6
FIN
 62
     4
100
AcDbText
 10
51.65956284635422
 20
115.8694265680268
 30
0.0
 40
1.163758076088768
  1
401
 50
90.0
 41
1.149999999999999
  7
ARIAL
 72
     4
 11
51.0852252146692
 21
117.429128323789
 31
0.0
100
AcDbText
  0
LINE
  5
E4
330
1F
100
AcDbEntity
  8
A
  6
BLEU
 62
     5
100
AcDbLine
 10
234.7537796497344
 20
188.1818122863769
 30
0.0
 11
234.7537796497344
 21
191.6856000423431
 31
0.0
  0
LINE
  5
E5
330
1F
100
AcDbEntity
  8
A
  6
BLEU
 62
     5
100
AcDbLine
 10
227.746204137802
 20
174.1666612625121
 30
0.0
 11
227.746204137802
 21
181.1742367744445
 31
0.0
  0
LINE
  5
E6
330
1F
100
AcDbEntity
  8
A
  6
BLEU
 62
     5
100
AcDbLine
 10
80.5871183872223
 20
90.07575511932371
 30
0.0
 11
80.5871183872223
 21
191.6856000423431
 31
0.0
  0
TEXT
  5
E7
330
1F
100
AcDbEntity
  8
A
  6
FIN
 62
     4
100
AcDbText
 10
79.68986489408371
 20
115.8694265680268
 30
0.0
 40
1.163758076088768
  1
402
 50
90.0
 41
1.149999999999999
  7
ARIAL
 72
     4
 11
79.1155272623987
 21
117.429128323789
 31
0.0
100
AcDbText
  0
LINE
  5
E8
330
1F
100
AcDbEntity
  8
A
  6
BLEU
 62
     5
100
AcDbLine
 10
150.6628735065459
 20
90.07575511932371
 30
0.0
 11
150.6628735065459
 21
104.0909061431884
 31
0.0
  0
TEXT
  5
E9
330
1F
100
AcDbEntity
  8
A
  6
FIN
 62
     4
100
AcDbText
 10
149.7755495994566
 20
95.52362887549394
 30
0.0
 40
1.163758076088768
  1
114
 50
90.0
 41
1.149999999999999
  7
ARIAL
 72
     4
 11
149.1912890646671
 21
97.08333063125609
 31
0.0
100
AcDbText
  0
LINE
  5
EA
330
1F
100
AcDbEntity
  8
A
  6
BLEU
 62
     5
100
AcDbLine
 10
94.60226941108706
 20
156.6477224826813
 30
0.0
 11
101.6098449230194
 21
156.6477224826813
 31
0.0
  0
LINE
  5
EB
330
1F
100
AcDbEntity
  8
A
  6
BLEU
 62
     5
100
AcDbLine
 10
101.6098449230194
 20
170.6628735065459
 30
0.0
 11
101.6098449230194
 21
167.1590857505798
 31
0.0
  0
LINE
  5
EC
330
1F
100
AcDbEntity
  8
A
  6
BLEU
 62
     5
100
AcDbLine
 10
164.6780245304108
 20
90.07575511932371
 30
0.0
 11
164.6780245304108
 21
191.6856000423431
 31
0.0
  0
TEXT
  5
ED
330
1F
100
AcDbEntity
  8
A
  6
FIN
 62
     4
100
AcDbText
 10
163.780777720217
 20
115.8694265680268
 30
0.0
 40
1.163758076088768
  1
405
 50
90.0
 41
1.149999999999999
  7
ARIAL
 72
     4
 11
163.206440088532
 21
117.429128323789
 31
0.0
100
AcDbText
  0
HATCH
  5
EE
330
1F
100
AcDbEntity
  8
A
  6
BLEU
 62
     5
100
AcDbHatch
 10
0.0
 20
0.0
 30
0.0
210
0.0
220
0.0
230
1.0
  2
SOLID
 70
     1
 71
     0
 91
        1
 92
        0
 93
        1
 72
     2
 10
227.746204137802
 20
191.6856000423431
 40
0.6499999761581421
 50
0.0
 51
360.0
 73
     1
 97
        0
 75
     0
 76
     1
 98
        0
  0
LINE
  5
EF
330
1F
100
AcDbEntity
  8
A
  6
BLEU
 62
     5
100
AcDbLine
 10
227.746204137802
 20
188.1818122863769
 30
0.0
 11
227.746204137802
 21
191.0356000728836
 31
0.0
  0
HATCH
  5
F0
330
1F
100
AcDbEntity
  8
A
  6
BLEU
 62
     5
100
AcDbHatch
 10
0.0
 20
0.0
 30
0.0
210
0.0
220
0.0
230
1.0
  2
SOLID
 70
     1
 71
     0
 91
        1
 92
        0
 93
        1
 72
     2
 10
143.6552979946136
 20
125.1136326789856
 40
0.6499999761581421
 50
0.0
 51
360.0
 73
     1
 97
        0
 75
     0
 76
     1
 98
        0
  0
HATCH
  5
F1
330
1F
100
AcDbEntity
  8
A
  6
BLEU
 62
     5
100
AcDbHatch
 10
0.0
 20
0.0
 30
0.0
210
0.0
220
0.0
230
1.0
  2
SOLID
 70
     1
 71
     0
 91
        1
 92
        0
 93
        1
 72
     2
 10
115.6249959468842
 20
125.1136326789856
 40
0.6499999761581421
 50
0.0
 51
360.0
 73
     1
 97
        0
 75
     0
 76
     1
 98
        0
  0
LINE
  5
F2
330
1F
100
AcDbEntity
  8
A
  6
BLEU
 62
     5
100
AcDbLine
 10
143.0052980251541
 20
125.1136326789856
 30
0.0
 11
116.2749959163437
 21
125.1136326789856
 31
0.0
  0
HATCH
  5
F3
330
1F
100
AcDbEntity
  8
A
  6
BLEU
 62
     5
100
AcDbHatch
 10
0.0
 20
0.0
 30
0.0
210
0.0
220
0.0
230
1.0
  2
SOLID
 70
     1
 71
     0
 91
        1
 92
        0
 93
        1
 72
     2
 10
234.7537796497344
 20
125.1136326789856
 40
0.6499999761581421
 50
0.0
 51
360.0
 73
     1
 97
        0
 75
     0
 76
     1
 98
        0
  0
LINE
  5
F4
330
1F
100
AcDbEntity
  8
A
  6
BLEU
 62
     5
100
AcDbLine
 10
234.7537796497344
 20
125.7636326484451
 30
0.0
 11
234.7537796497344
 21
128.6174204349518
 31
0.0
  0
HATCH
  5
F5
330
1F
100
AcDbEntity
  8
A
  6
BLEU
 62
     5
100
AcDbHatch
 10
0.0
 20
0.0
 30
0.0
210
0.0
220
0.0
230
1.0
  2
SOLID
 70
     1
 71
     0
 91
        1
 92
        0
 93
        1
 72
     2
 10
262.7840816974639
 20
125.1136326789856
 40
0.6499999761581421
 50
0.0
 51
360.0
 73
     1
 97
        0
 75
     0
 76
     1
 98
        0
  0
LINE
  5
F6
330
1F
100
AcDbEntity
  8
A
  6
BLEU
 62
     5
100
AcDbLine
 10
263.4340816669234
 20
125.1136326789856
 30
0.0
 11
276.7992327213286
 21
125.1136326789856
 31
0.0
  0
TEXT
  5
F7
330
1F
100
AcDbEntity
  8
A
  6
FIN
 62
     4
100
AcDbText
 10
268.2319554536342
 20
126.0108861721241
 30
0.0
 40
1.163758076088768
  1
115
 41
1.149999999999999
  7
ARIAL
 72
     4
 11
269.7916572093964
 21
126.5852238038092
 31
0.0
100
AcDbText
  0
LINE
  5
F8
330
1F
100
AcDbEntity
  8
A
  6
BLEU
 62
     5
100
AcDbLine
 10
101.6098449230194
 20
156.6477224826813
 30
0.0
 11
101.6098449230194
 21
160.1515102386474
 31
0.0
  0
HATCH
  5
F9
330
1F
100
AcDbEntity
  8
A
  6
BLEU
 62
     5
100
AcDbHatch
 10
0.0
 20
0.0
 30
0.0
210
0.0
220
0.0
230
1.0
  2
SOLID
 70
     1
 71
     0
 91
        1
 92
        0
 93
        1
 72
     2
 10
150.6628735065459
 20
125.1136326789856
 40
0.6499999761581421
 50
0.0
 51
360.0
 73
     1
 97
        0
 75
     0
 76
     1
 98
        0
  0
LINE
  5
FA
330
1F
100
AcDbEntity
  8
A
  6
BLEU
 62
     5
100
AcDbLine
 10
151.3128734760055
 20
125.1136326789856
 30
0.0
 11
175.1893877983093
 21
125.1136326789856
 31
0.0
  0
LINE
  5
FB
330
1F
100
AcDbEntity
  8
A
  6
BLEU
 62
     5
100
AcDbLine
 10
94.60226941108706
 20
170.6628735065459
 30
0.0
 11
101.6098449230194
 21
170.6628735065459
 31
0.0
  0
LINE
  5
FC
330
1F
100
AcDbEntity
  8
A
  6
BLEU
 62
     5
100
AcDbLine
 10
63.06817960739135
 20
135.6249959468842
 30
0.0
 11
63.06817960739135
 21
160.1515102386474
 31
0.0
  0
TEXT
  5
FD
330
1F
100
AcDbEntity
  8
A
  6
FIN
 62
     4
100
AcDbText
 10
62.18084901735722
 20
146.3285580199484
 30
0.0
 40
1.163758076088768
  1
117
 50
90.0
 41
1.149999999999999
  7
ARIAL
 72
     4
 11
61.59658848256778
 21
147.8882597757106
 31
0.0
100
AcDbText
  0
HATCH
  5
FE
330
1F
100
AcDbEntity
  8
A
  6
BLEU
 62
     5
100
AcDbHatch
 10
0.0
 20
0.0
 30
0.0
210
0.0
220
0.0
230
1.0
  2
SOLID
 70
     1
 71
     0
 91
        1
 92
        0
 93
        1
 72
     2
 10
227.746204137802
 20
125.1136326789856
 40
0.6499999761581421
 50
0.0
 51
360.0
 73
     1
 97
        0
 75
     0
 76
     1
 98
        0
  0
LINE
  5
FF
330
1F
100
AcDbEntity
  8
A
  6
BLEU
 62
     5
100
AcDbLine
 10
228.3962041072617
 20
125.1136326789856
 30
0.0
 11
234.103779680275
 21
125.1136326789856
 31
0.0
  0
LINE
  5
100
330
1F
100
AcDbEntity
  8
A
  6
BLEU
 62
     5
100
AcDbLine
 10
248.7689306735992
 20
90.07575511932371
 30
0.0
 11
248.7689306735992
 21
191.6856000423431
 31
0.0
  0
TEXT
  5
101
330
1F
100
AcDbEntity
  8
A
  6
FIN
 62
     4
100
AcDbText
 10
247.8716838634054
 20
115.8694265680268
 30
0.0
 40
1.163758076088768
  1
407
 50
90.0
 41
1.149999999999999
  7
ARIAL
 72
     4
 11
247.2973462317203
 21
117.429128323789
 31
0.0
100
AcDbText
  0
LINE
  5
102
330
1F
100
AcDbEntity
  8
A
  6
BLEU
 62
     5
100
AcDbLine
 10
52.55681633949279
 20
191.6856000423431
 30
0.0
 11
63.06817960739135
 21
191.6856000423431
 31
0.0
  0
LINE
  5
103
330
1F
100
AcDbEntity
  8
A
  6
BLEU
 62
     5
100
AcDbLine
 10
63.06817960739135
 20
125.1136326789856
 30
0.0
 11
59.56439185142517
 21
125.1136326789856
 31
0.0
  0
TEXT
  5
104
330
1F
100
AcDbEntity
  8
A
  6
FIN
 62
     4
100
AcDbText
 10
59.38938957237895
 20
126.0009632690197
 30
0.0
 40
1.163758076088768
  1
117
 41
1.149999999999999
  7
ARIAL
 72
     4
 11
60.9490913281411
 21
126.5852238038092
 31
0.0
100
AcDbText
  0
HATCH
  5
105
330
1F
100
AcDbEntity
  8
A
  6
BLEU
 62
     5
100
AcDbHatch
 10
0.0
 20
0.0
 30
0.0
210
0.0
220
0.0
230
1.0
  2
SOLID
 70
     1
 71
     0
 91
        1
 92
        0
 93
        1
 72
     2
 10
66.57196736335753
 20
104.0909061431884
 40
0.6499999761581421
 50
0.0
 51
360.0
 73
     1
 97
        0
 75
     0
 76
     1
 98
        0
  0
LINE
  5
106
330
1F
100
AcDbEntity
  8
A
  6
BLEU
 62
     5
100
AcDbLine
 10
66.57196736335753
 20
90.07575511932371
 30
0.0
 11
66.57196736335753
 21
103.4409061737288
 31
0.0
  0
TEXT
  5
107
330
1F
100
AcDbEntity
  8
A
  6
FIN
 62
     4
100
AcDbText
 10
65.6846367733234
 20
95.52362887549394
 30
0.0
 40
1.163758076088768
  1
114
 50
90.0
 41
1.149999999999999
  7
ARIAL
 72
     4
 11
65.10037623853396
 21
97.08333063125609
 31
0.0
100
AcDbText
  0
HATCH
  5
108
330
1F
100
AcDbEntity
  8
A
  6
BLEU
 62
     5
100
AcDbHatch
 10
0.0
 20
0.0
 30
0.0
210
0.0
220
0.0
230
1.0
  2
SOLID
 70
     1
 71
     0
 91
        1
 92
        0
 93
        1
 72
     2
 10
94.60226941108706
 20
104.0909061431884
 40
0.6499999761581421
 50
0.0
 51
360.0
 73
     1
 97
        0
 75
     0
 76
     1
 98
        0
  0
HATCH
  5
109
330
1F
100
AcDbEntity
  8
A
  6
BLEU
 62
     5
100
AcDbHatch
 10
0.0
 20
0.0
 30
0.0
210
0.0
220
0.0
230
1.0
  2
SOLID
 70
     1
 71
     0
 91
        1
 92
        0
 93
        1
 72
     2
 10
122.6325714588165
 20
104.0909061431884
 40
0.6499999761581421
 50
0.0
 51
360.0
 73
     1
 97
        0
 75
     0
 76
     1
 98
        0
  0
LINE
  5
10A
330
1F
100
AcDbEntity
  8
A
  6
BLEU
 62
     5
100
AcDbLine
 10
95.25226938054656
 20
104.0909061431884
 30
0.0
 11
121.982571489357
 21
104.0909061431884
 31
0.0
  0
LINE
  5
10B
330
1F
100
AcDbEntity
  8
A
  6
BLEU
 62
     5
100
AcDbLine
 10
94.60226941108706
 20
90.07575511932371
 30
0.0
 11
94.60226941108706
 21
103.4409061737288
 31
0.0
  0
TEXT
  5
10C
330
1F
100
AcDbEntity
  8
A
  6
FIN
 62
     4
100
AcDbText
 10
93.71493882105289
 20
95.52362887549394
 30
0.0
 40
1.163758076088768
  1
114
 50
90.0
 41
1.149999999999999
  7
ARIAL
 72
     4
 11
93.13067828626344
 21
97.08333063125609
 31
0.0
100
AcDbText
  0
LINE
  5
10D
330
1F
100
AcDbEntity
  8
A
  6
BLEU
 62
     5
100
AcDbLine
 10
123.282571428276
 20
104.0909061431884
 30
0.0
 11
150.6628735065459
 21
104.0909061431884
 31
0.0
  0
LINE
  5
10E
330
1F
100
AcDbEntity
  8
A
  6
BLEU
 62
     5
100
AcDbLine
 10
122.6325714588165
 20
90.07575511932371
 30
0.0
 11
122.6325714588165
 21
103.4409061737288
 31
0.0
  0
TEXT
  5
10F
330
1F
100
AcDbEntity
  8
A
  6
FIN
 62
     4
100
AcDbText
 10
121.7452475517271
 20
95.52362887549394
 30
0.0
 40
1.163758076088768
  1
114
 50
90.0
 41
1.149999999999999
  7
ARIAL
 72
     4
 11
121.1609870169376
 21
97.08333063125609
 31
0.0
100
AcDbText
  0
LINE
  5
110
330
1F
100
AcDbEntity
  8
A
  6
BLEU
 62
     5
100
AcDbLine
 10
67.2219673328171
 20
104.0909061431884
 30
0.0
 11
93.95226944162748
 21
104.0909061431884
 31
0.0
  0
HATCH
  5
111
330
1F
100
AcDbEntity
  8
A
  6
BLEU
 62
     5
100
AcDbHatch
 10
0.0
 20
0.0
 30
0.0
210
0.0
220
0.0
230
1.0
  2
SOLID
 70
     1
 71
     0
 91
        1
 92
        0
 93
        1
 72
     2
 10
143.6552979946136
 20
191.6856000423431
 40
0.6499999761581421
 50
0.0
 51
360.0
 73
     1
 97
        0
 75
     0
 76
     1
 98
        0
  0
LINE
  5
112
330
1F
100
AcDbEntity
  8
A
  6
BLEU
 62
     5
100
AcDbLine
 10
143.6552979946136
 20
174.1666612625121
 30
0.0
 11
143.6552979946136
 21
191.0356000728836
 31
0.0
  0
HATCH
  5
113
330
1F
100
AcDbEntity
  8
A
  6
BLEU
 62
     5
100
AcDbHatch
 10
0.0
 20
0.0
 30
0.0
210
0.0
220
0.0
230
1.0
  2
SOLID
 70
     1
 71
     0
 91
        1
 92
        0
 93
        1
 72
     2
 10
255.7765061855315
 20
191.6856000423431
 40
0.6499999761581421
 50
0.0
 51
360.0
 73
     1
 97
        0
 75
     0
 76
     1
 98
        0
  0
LINE
  5
114
330
1F
100
AcDbEntity
  8
A
  6
BLEU
 62
     5
100
AcDbLine
 10
256.4265061549912
 20
191.6856000423431
 30
0.0
 11
262.7840816974639
 21
191.6856000423431
 31
0.0
  0
LINE
  5
115
330
1F
100
AcDbEntity
  8
A
  6
BLEU
 62
     5
100
AcDbLine
 10
262.7840816974639
 20
135.6249959468842
 30
0.0
 11
262.7840816974639
 21
156.6477224826813
 31
0.0
  0
TEXT
  5
116
330
1F
100
AcDbEntity
  8
A
  6
FIN
 62
     4
100
AcDbText
 10
261.8868348872701
 20
144.5766641419653
 30
0.0
 40
1.163758076088768
  1
115
 50
90.0
 41
1.149999999999999
  7
ARIAL
 72
     4
 11
261.3124972555851
 21
146.1363658977274
 31
0.0
100
AcDbText
  0
LINE
  5
117
330
1F
100
AcDbEntity
  8
A
  6
BLEU
 62
     5
100
AcDbLine
 10
248.7689306735992
 20
191.6856000423431
 30
0.0
 11
255.126506216072
 21
191.6856000423431
 31
0.0
  0
LINE
  5
118
330
1F
100
AcDbEntity
  8
A
  6
BLEU
 62
     5
100
AcDbLine
 10
80.5871183872223
 20
191.6856000423431
 30
0.0
 11
91.09848165512085
 21
191.6856000423431
 31
0.0
  0
LINE
  5
119
330
1F
100
AcDbEntity
  8
A
  6
BLEU
 62
     5
100
AcDbLine
 10
91.09848165512085
 20
174.1666612625121
 30
0.0
 11
91.09848165512085
 21
191.6856000423431
 31
0.0
  0
LINE
  5
11A
330
1F
100
AcDbEntity
  8
A
  6
BLEU
 62
     5
100
AcDbLine
 10
228.3962041072617
 20
191.6856000423431
 30
0.0
 11
234.7537796497344
 21
191.6856000423431
 31
0.0
  0
HATCH
  5
11B
330
1F
100
AcDbEntity
  8
A
  6
BLEU
 62
     5
100
AcDbHatch
 10
0.0
 20
0.0
 30
0.0
210
0.0
220
0.0
230
1.0
  2
SOLID
 70
     1
 71
     0
 91
        1
 92
        0
 93
        1
 72
     2
 10
206.723477602005
 20
104.0909061431884
 40
0.6499999761581421
 50
0.0
 51
360.0
 73
     1
 97
        0
 75
     0
 76
     1
 98
        0
  0
LINE
  5
11C
330
1F
100
AcDbEntity
  8
A
  6
BLEU
 62
     5
100
AcDbLine
 10
206.723477602005
 20
90.07575511932371
 30
0.0
 11
206.723477602005
 21
103.4409061737288
 31
0.0
  0
TEXT
  5
11D
330
1F
100
AcDbEntity
  8
A
  6
FIN
 62
     4
100
AcDbText
 10
205.8262307918112
 20
95.52362887549394
 30
0.0
 40
1.163758076088768
  1
116
 50
90.0
 41
1.149999999999999
  7
ARIAL
 72
     4
 11
205.2518931601261
 21
97.08333063125609
 31
0.0
100
AcDbText
  0
LINE
  5
11E
330
1F
100
AcDbEntity
  8
A
  6
BLEU
 62
     5
100
AcDbLine
 10
108.6174204349517
 20
191.6856000423431
 30
0.0
 11
115.6249959468842
 21
191.6856000423431
 31
0.0
  0
LINE
  5
11F
330
1F
100
AcDbEntity
  8
A
  6
JAUNE
 62
     2
100
AcDbLine
 10
14.01515102386475
 20
44.52651429176331
 30
0.0
 11
45.54924082756043
 21
44.52651429176331
 31
0.0
  0
TEXT
  5
120
330
1F
100
AcDbEntity
  8
A
  6
FIN
 62
     4
100
AcDbText
 10
27.71760065460431
 20
45.92626359811074
 30
0.0
 40
1.163758076088768
  1
-
 41
1.149999999999999
  7
ARIAL
 72
     4
 11
28.02890197079682
 21
45.9981054165869
 31
0.0
100
AcDbText
  0
LINE
  5
121
330
1F
100
AcDbEntity
  8
A
  6
JAUNE
 62
     2
100
AcDbLine
 10
14.01515102386475
 20
48.03030204772949
 30
0.0
 11
38.54166531562804
 21
48.03030204772949
 31
0.0
  0
TEXT
  5
122
330
1F
100
AcDbEntity
  8
A
  6
FIN
 62
     4
100
AcDbText
 10
27.48368357206926
 20
49.11728144822497
 30
0.0
 40
1.163758076088768
  1
+
 41
1.149999999999999
  7
ARIAL
 72
     4
 11
28.02960200926316
 21
49.50189317255308
 31
0.0
100
AcDbText
  0
LINE
  5
123
330
1F
100
AcDbEntity
  8
A
  6
JAUNE
 62
     2
100
AcDbLine
 10
38.54166531562804
 20
48.03030204772949
 30
0.0
 11
38.54166531562804
 21
62.04545307159424
 31
0.0
  0
TEXT
  5
124
330
1F
100
AcDbEntity
  8
A
  6
FIN
 62
     4
100
AcDbText
 10
37.45468591513257
 20
54.49195745173178
 30
0.0
 40
1.163758076088768
  1
+
 50
90.0
 41
1.149999999999999
  7
ARIAL
 72
     4
 11
37.07007419080446
 21
55.03787588892567
 31
0.0
100
AcDbText
  0
LINE
  5
125
330
1F
100
AcDbEntity
  8
A
  6
JAUNE
 62
     2
100
AcDbLine
 10
52.55681633949279
 20
48.03030204772949
 30
0.0
 11
280.3030204772949
 21
48.03030204772949
 31
0.0
  0
TEXT
  5
126
330
1F
100
AcDbEntity
  8
A
  6
FIN
 62
     4
100
AcDbText
 10
164.1303551616829
 20
49.11728144822497
 30
0.0
 40
1.163758076088768
  1
+
 41
1.149999999999999
  7
ARIAL
 72
     4
 11
164.6762735988768
 21
49.50189317255308
 31
0.0
100
AcDbText
  0
LINE
  5
127
330
1F
100
AcDbEntity
  8
A
  6
JAUNE
 62
     2
100
AcDbLine
 10
52.55681633949279
 20
62.04545307159424
 30
0.0
 11
52.55681633949279
 21
48.03030204772949
 31
0.0
  0
TEXT
  5
128
330
1F
100
AcDbEntity
  8
A
  6
FIN
 62
     4
100
AcDbText
 10
51.46983693899731
 20
54.49195745173178
 30
0.0
 40
1.163758076088768
  1
+
 50
90.0
 41
1.149999999999999
  7
ARIAL
 72
     4
 11
51.0852252146692
 21
55.03787588892567
 31
0.0
100
AcDbText
  0
LINE
  5
129
330
1F
100
AcDbEntity
  8
A
  6
JAUNE
 62
     2
100
AcDbLine
 10
45.54924082756043
 20
44.52651429176331
 30
0.0
 11
45.54924082756043
 21
62.04545307159424
 31
0.0
  0
TEXT
  5
12A
330
1F
100
AcDbEntity
  8
A
  6
FIN
 62
     4
100
AcDbText
 10
44.14949152121299
 20
54.72657624346936
 30
0.0
 40
1.163758076088768
  1
-
 50
90.0
 41
1.149999999999999
  7
ARIAL
 72
     4
 11
44.07764970273684
 21
55.03787755966186
 31
0.0
100
AcDbText
  0
LINE
  5
12B
330
1F
100
AcDbEntity
  8
A
  6
JAUNE
 62
     2
100
AcDbLine
 10
59.56439185142517
 20
44.52651429176331
 30
0.0
 11
280.3030204772949
 21
44.52651429176331
 31
0.0
  0
TEXT
  5
12C
330
1F
100
AcDbEntity
  8
A
  6
FIN
 62
     4
100
AcDbText
 10
164.3467478922529
 20
45.92626359811074
 30
0.0
 40
1.163758076088768
  1
-
 41
1.149999999999999
  7
ARIAL
 72
     4
 11
164.6580492084454
 21
45.9981054165869
 31
0.0
100
AcDbText
  0
LINE
  5
12D
330
1F
100
AcDbEntity
  8
A
  6
JAUNE
 62
     2
100
AcDbLine
 10
59.56439185142517
 20
62.04545307159424
 30
0.0
 11
59.56439185142517
 21
44.52651429176331
 31
0.0
  0
TEXT
  5
12E
330
1F
100
AcDbEntity
  8
A
  6
FIN
 62
     4
100
AcDbText
 10
58.16464254507773
 20
54.72657624346936
 30
0.0
 40
1.163758076088768
  1
-
 50
90.0
 41
1.149999999999999
  7
ARIAL
 72
     4
 11
58.09280072660158
 21
55.03787755966186
 31
0.0
100
AcDbText
  0
HATCH
  5
12F
330
1F
100
AcDbEntity
  8
A
  6
BLEU
 62
     5
100
AcDbHatch
 10
0.0
 20
0.0
 30
0.0
210
0.0
220
0.0
230
1.0
  2
SOLID
 70
     1
 71
     0
 91
        1
 92
        0
 93
        1
 72
     2
 10
255.7765061855315
 20
125.1136326789856
 40
0.6499999761581421
 50
0.0
 51
360.0
 73
     1
 97
        0
 75
     0
 76
     1
 98
        0
  0
LINE
  5
130
330
1F
100
AcDbEntity
  8
A
  6
BLEU
 62
     5
100
AcDbLine
 10
235.4037796191939
 20
125.1136326789856
 30
0.0
 11
255.126506216072
 21
125.1136326789856
 31
0.0
  0
LINE
  5
131
330
1F
100
AcDbEntity
  8
A
  6
BLEU
 62
     5
100
AcDbLine
 10
115.6249959468842
 20
125.7636326484451
 30
0.0
 11
115.6249959468842
 21
128.6174204349518
 31
0.0
  0
LINE
  5
132
330
1F
100
AcDbEntity
  8
A
  6
BLEU
 62
     5
100
AcDbLine
 10
144.3052979640731
 20
191.6856000423431
 30
0.0
 11
150.6628735065459
 21
191.6856000423431
 31
0.0
  0
LINE
  5
133
330
1F
100
AcDbEntity
  8
A
  6
BLEU
 62
     5
100
AcDbLine
 10
63.06817960739135
 20
125.1136326789856
 30
0.0
 11
63.06817960739135
 21
128.6174204349518
 31
0.0
  0
LINE
  5
134
330
1F
100
AcDbEntity
  8
A
  6
BLEU
 62
     5
100
AcDbLine
 10
164.6780245304108
 20
191.6856000423431
 30
0.0
 11
175.1893877983093
 21
191.6856000423431
 31
0.0
  0
LINE
  5
135
330
1F
100
AcDbEntity
  8
A
  6
BLEU
 62
     5
100
AcDbLine
 10
144.3052979640731
 20
125.1136326789856
 30
0.0
 11
150.0128735370864
 21
125.1136326789856
 31
0.0
  0
LINE
  5
136
330
1F
100
AcDbEntity
  8
A
  6
BLEU
 62
     5
100
AcDbLine
 10
38.54166531562804
 20
104.0909061431884
 30
0.0
 11
31.53408980369567
 21
104.0909061431884
 31
0.0
  0
TEXT
  5
137
330
1F
100
AcDbEntity
  8
A
  6
FIN
 62
     4
100
AcDbText
 10
33.47817580389972
 20
104.988159636327
 30
0.0
 40
1.163758076088768
  1
118
 41
1.149999999999999
  7
ARIAL
 72
     4
 11
35.03787755966187
 21
105.562497268012
 31
0.0
100
AcDbText
  0
LINE
  5
138
330
1F
100
AcDbEntity
  8
A
  6
BLEU
 62
     5
100
AcDbLine
 10
175.1893877983093
 20
135.6249959468842
 30
0.0
 11
175.1893877983093
 21
153.143934726715
 31
0.0
  0
TEXT
  5
139
330
1F
100
AcDbEntity
  8
A
  6
FIN
 62
     4
100
AcDbText
 10
174.2917440719913
 20
144.4382603554471
 30
0.0
 40
1.163758076088768
  1
113
 50
90.0
 41
1.149999999999999
  7
ARIAL
 72
     4
 11
173.7178033564305
 21
145.9979621112093
 31
0.0
100
AcDbText
  0
LINE
  5
13A
330
1F
100
AcDbEntity
  8
A
  6
BLEU
 62
     5
100
AcDbLine
 10
255.7765061855315
 20
135.6249959468842
 30
0.0
 11
255.7765061855315
 21
167.1590857505798
 31
0.0
  0
TEXT
  5
13B
330
1F
100
AcDbEntity
  8
A
  6
FIN
 62
     4
100
AcDbText
 10
254.8792593753378
 20
144.2161192707602
 30
0.0
 40
1.163758076088768
  1
115
 50
90.0
 41
1.149999999999999
  7
ARIAL
 72
     4
 11
254.3049217436528
 21
145.7758210265224
 31
0.0
100
AcDbText
  0
LINE
  5
13C
330
1F
100
AcDbEntity
  8
A
  6
BLEU
 62
     5
100
AcDbLine
 10
175.1893877983093
 20
125.1136326789856
 30
0.0
 11
175.1893877983093
 21
128.6174204349518
 31
0.0
  0
LINE
  5
13D
330
1F
100
AcDbEntity
  8
A
  6
BLEU
 62
     5
100
AcDbLine
 10
175.1893877983093
 20
160.1515102386474
 30
0.0
 11
175.1893877983093
 21
191.6856000423431
 31
0.0
  0
LINE
  5
13E
330
1F
100
AcDbEntity
  8
A
  6
BLEU
 62
     5
100
AcDbLine
 10
150.6628735065459
 20
163.6552979946136
 30
0.0
 11
150.6628735065459
 21
191.6856000423431
 31
0.0
  0
LINE
  5
13F
330
1F
100
AcDbEntity
  8
A
  6
BLEU
 62
     5
100
AcDbLine
 10
234.7537796497344
 20
163.6552979946136
 30
0.0
 11
234.7537796497344
 21
181.1742367744445
 31
0.0
  0
LINE
  5
140
330
1F
100
AcDbEntity
  8
A
  6
BLEU
 62
     5
100
AcDbLine
 10
262.7840816974639
 20
163.6552979946136
 30
0.0
 11
262.7840816974639
 21
191.6856000423431
 31
0.0
  0
LINE
  5
141
330
1F
100
AcDbEntity
  8
A
  6
BLEU
 62
     5
100
AcDbLine
 10
38.54166531562804
 20
90.07575511932371
 30
0.0
 11
38.54166531562804
 21
104.0909061431884
 31
0.0
  0
TEXT
  5
142
330
1F
100
AcDbEntity
  8
A
  6
FIN
 62
     4
100
AcDbText
 10
37.64441182248947
 20
95.52362887549394
 30
0.0
 40
1.163758076088768
  1
118
 50
90.0
 41
1.149999999999999
  7
ARIAL
 72
     4
 11
37.07007419080446
 21
97.08333063125609
 31
0.0
100
AcDbText
  0
LINE
  5
143
330
1F
100
AcDbEntity
  8
A
  6
BLEU
 62
     5
100
AcDbLine
 10
227.746204137802
 20
125.7636326484451
 30
0.0
 11
227.746204137802
 21
128.6174204349518
 31
0.0
  0
LINE
  5
144
330
1F
100
AcDbEntity
  8
A
  6
BLEU
 62
     5
100
AcDbLine
 10
227.0962041683425
 20
125.1136326789856
 30
0.0
 11
203.2196898460388
 21
125.1136326789856
 31
0.0
  0
TEXT
  5
145
330
1F
100
AcDbEntity
  8
A
  6
FIN
 62
     4
100
AcDbText
 10
213.9232519191031
 20
126.0108861721241
 30
0.0
 40
1.163758076088768
  1
115
 41
1.149999999999999
  7
ARIAL
 72
     4
 11
215.4829536748653
 21
126.5852238038092
 31
0.0
100
AcDbText
  0
LINE
  5
146
330
1F
100
AcDbEntity
  8
A
  6
BLEU
 62
     5
100
AcDbLine
 10
63.06817960739135
 20
167.1590857505798
 30
0.0
 11
63.06817960739135
 21
191.6856000423431
 31
0.0
  0
LINE
  5
147
330
1F
100
AcDbEntity
  8
A
  6
BLEU
 62
     5
100
AcDbLine
 10
255.7765061855315
 20
125.7636326484451
 30
0.0
 11
255.7765061855315
 21
128.6174204349518
 31
0.0
  0
LINE
  5
148
330
1F
100
AcDbEntity
  8
A
  6
BLEU
 62
     5
100
AcDbLine
 10
115.6249959468842
 20
135.6249959468842
 30
0.0
 11
115.6249959468842
 21
156.6477224826813
 31
0.0
  0
TEXT
  5
149
330
1F
100
AcDbEntity
  8
A
  6
FIN
 62
     4
100
AcDbText
 10
114.7273522205662
 20
144.5766641419653
 30
0.0
 40
1.163758076088768
  1
113
 50
90.0
 41
1.149999999999999
  7
ARIAL
 72
     4
 11
114.1534115050053
 21
146.1363658977274
 31
0.0
100
AcDbText
  0
HATCH
  5
14A
330
1F
100
AcDbEntity
  8
A
  6
BLEU
 62
     5
100
AcDbHatch
 10
0.0
 20
0.0
 30
0.0
210
0.0
220
0.0
230
1.0
  2
SOLID
 70
     1
 71
     0
 91
        1
 92
        0
 93
        1
 72
     2
 10
91.09848165512085
 20
125.1136326789856
 40
0.6499999761581421
 50
0.0
 51
360.0
 73
     1
 97
        0
 75
     0
 76
     1
 98
        0
  0
LINE
  5
14B
330
1F
100
AcDbEntity
  8
A
  6
BLEU
 62
     5
100
AcDbLine
 10
114.9749959774245
 20
125.1136326789856
 30
0.0
 11
91.7484816245804
 21
125.1136326789856
 31
0.0
  0
LINE
  5
14C
330
1F
100
AcDbEntity
  8
A
  6
BLEU
 62
     5
100
AcDbLine
 10
256.4265061549912
 20
125.1136326789856
 30
0.0
 11
262.1340817280044
 21
125.1136326789856
 31
0.0
  0
LINE
  5
14D
330
1F
100
AcDbEntity
  8
A
  6
BLEU
 62
     5
100
AcDbLine
 10
143.6552979946136
 20
135.6249959468842
 30
0.0
 11
143.6552979946136
 21
167.1590857505798
 31
0.0
  0
TEXT
  5
14E
330
1F
100
AcDbEntity
  8
A
  6
FIN
 62
     4
100
AcDbText
 10
142.7576542682956
 20
144.6576079692134
 30
0.0
 40
1.163758076088768
  1
113
 50
90.0
 41
1.149999999999999
  7
ARIAL
 72
     4
 11
142.1837135527348
 21
146.2173097249755
 31
0.0
100
AcDbText
  0
LINE
  5
14F
330
1F
100
AcDbEntity
  8
A
  6
BLEU
 62
     5
100
AcDbLine
 10
136.6477224826813
 20
191.6856000423431
 30
0.0
 11
143.0052980251541
 21
191.6856000423431
 31
0.0
  0
LINE
  5
150
330
1F
100
AcDbEntity
  8
A
  6
BLEU
 62
     5
100
AcDbLine
 10
234.7537796497344
 20
135.6249959468842
 30
0.0
 11
234.7537796497344
 21
156.6477224826813
 31
0.0
  0
TEXT
  5
151
330
1F
100
AcDbEntity
  8
A
  6
FIN
 62
     4
100
AcDbText
 10
233.8565328395407
 20
144.5766641419653
 30
0.0
 40
1.163758076088768
  1
115
 50
90.0
 41
1.149999999999999
  7
ARIAL
 72
     4
 11
233.2821952078556
 21
146.1363658977274
 31
0.0
100
AcDbText
  0
LINE
  5
152
330
1F
100
AcDbEntity
  8
A
  6
BLEU
 62
     5
100
AcDbLine
 10
91.09848165512085
 20
125.7636326484451
 30
0.0
 11
91.09848165512085
 21
128.6174204349518
 31
0.0
  0
LINE
  5
153
330
1F
100
AcDbEntity
  8
A
  6
BLEU
 62
     5
100
AcDbLine
 10
90.44848168566131
 20
125.1136326789856
 30
0.0
 11
77.08333063125609
 21
125.1136326789856
 31
0.0
  0
TEXT
  5
154
330
1F
100
AcDbEntity
  8
A
  6
FIN
 62
     4
100
AcDbText
 10
82.53120438742634
 20
126.0112830882483
 30
0.0
 40
1.163758076088768
  1
113
 41
1.149999999999999
  7
ARIAL
 72
     4
 11
84.09090614318849
 21
126.5852238038092
 31
0.0
100
AcDbText
  0
LINE
  5
155
330
1F
100
AcDbEntity
  8
A
  6
BLEU
 62
     5
100
AcDbLine
 10
91.09848165512085
 20
135.6249959468842
 30
0.0
 11
91.09848165512085
 21
153.143934726715
 31
0.0
  0
TEXT
  5
156
330
1F
100
AcDbEntity
  8
A
  6
FIN
 62
     4
100
AcDbText
 10
90.20083124585809
 20
142.8247702639822
 30
0.0
 40
1.163758076088768
  1
113
 50
90.0
 41
1.149999999999999
  7
ARIAL
 72
     4
 11
89.62689053029725
 21
144.3844720197444
 31
0.0
100
AcDbText
  0
LINE
  5
157
330
1F
100
AcDbEntity
  8
A
  6
BLEU
 62
     5
100
AcDbLine
 10
143.6552979946136
 20
125.7636326484451
 30
0.0
 11
143.6552979946136
 21
128.6174204349518
 31
0.0
  0
LINE
  5
158
330
1F
100
AcDbEntity
  8
A
  6
BLEU
 62
     5
100
AcDbLine
 10
227.746204137802
 20
135.6249959468842
 30
0.0
 11
227.746204137802
 21
167.1590857505798
 31
0.0
  0
TEXT
  5
159
330
1F
100
AcDbEntity
  8
A
  6
FIN
 62
     4
100
AcDbText
 10
226.8489573276083
 20
144.436856937042
 30
0.0
 40
1.163758076088768
  1
115
 50
90.0
 41
1.149999999999999
  7
ARIAL
 72
     4
 11
226.2746196959233
 21
145.9965586928041
 31
0.0
100
AcDbText
  0
LINE
  5
15A
330
1F
100
AcDbEntity
  8
A
  6
BLEU
 62
     5
100
AcDbLine
 10
63.06817960739135
 20
104.0909061431884
 30
0.0
 11
65.921967393898
 21
104.0909061431884
 31
0.0
  0
TEXT
  5
15B
330
1F
100
AcDbEntity
  8
A
  6
FIN
 62
     4
100
AcDbText
 10
63.2603717296123
 20
104.9782367332226
 30
0.0
 40
1.163758076088768
  1
114
 41
1.149999999999999
  7
ARIAL
 72
     4
 11
64.82007348537445
 21
105.562497268012
 31
0.0
100
AcDbText
  0
LINE
  5
15C
330
1F
100
AcDbEntity
  8
A
  6
BLEU
 62
     5
100
AcDbLine
 10
255.7765061855315
 20
174.1666612625121
 30
0.0
 11
255.7765061855315
 21
191.0356000728836
 31
0.0
  0
LINE
  5
15D
330
1F
100
AcDbEntity
  8
A
  6
BLEU
 62
     5
100
AcDbLine
 10
150.6628735065459
 20
135.6249959468842
 30
0.0
 11
150.6628735065459
 21
156.6477224826813
 31
0.0
  0
TEXT
  5
15E
330
1F
100
AcDbEntity
  8
A
  6
FIN
 62
     4
100
AcDbText
 10
149.765229780228
 20
144.5766641419653
 30
0.0
 40
1.163758076088768
  1
113
 50
90.0
 41
1.149999999999999
  7
ARIAL
 72
     4
 11
149.1912890646671
 21
146.1363658977274
 31
0.0
100
AcDbText
  0
LINE
  5
15F
330
1F
100
AcDbEntity
  8
A
  6
BLEU
 62
     5
100
AcDbLine
 10
220.7386286258698
 20
191.6856000423431
 30
0.0
 11
227.0962041683425
 21
191.6856000423431
 31
0.0
  0
LINE
  5
160
330
1F
100
AcDbEntity
  8
A
  6
BLEU
 62
     5
100
AcDbLine
 10
203.2196898460388
 20
104.0909061431884
 30
0.0
 11
206.0734776325455
 21
104.0909061431884
 31
0.0
  0
TEXT
  5
161
330
1F
100
AcDbEntity
  8
A
  6
FIN
 62
     4
100
AcDbText
 10
202.8859676283249
 20
104.988159636327
 30
0.0
 40
1.163758076088768
  1
116
 41
1.149999999999999
  7
ARIAL
 72
     4
 11
204.445669384087
 21
105.562497268012
 31
0.0
100
AcDbText
  0
LINE
  5
162
330
1F
100
AcDbEntity
  8
A
  6
BLEU
 62
     5
100
AcDbLine
 10
262.7840816974639
 20
125.7636326484451
 30
0.0
 11
262.7840816974639
 21
128.6174204349518
 31
0.0
  0
LINE
  5
163
330
1F
100
AcDbEntity
  8
A
  6
BLEU
 62
     5
100
AcDbLine
 10
220.7386286258698
 20
90.07575511932371
 30
0.0
 11
220.7386286258698
 21
191.6856000423431
 31
0.0
  0
TEXT
  5
164
330
1F
100
AcDbEntity
  8
A
  6
FIN
 62
     4
100
AcDbText
 10
219.841381815676
 20
115.8694265680268
 30
0.0
 40
1.163758076088768
  1
406
 50
90.0
 41
1.149999999999999
  7
ARIAL
 72
     4
 11
219.267044183991
 21
117.429128323789
 31
0.0
100
AcDbText
  0
HATCH
  5
165
330
1F
100
AcDbEntity
  8
A
  6
BLEU
 62
     5
100
AcDbHatch
 10
0.0
 20
0.0
 30
0.0
210
0.0
220
0.0
230
1.0
  2
SOLID
 70
     1
 71
     0
 91
        1
 92
        0
 93
        1
 72
     2
 10
234.7537796497344
 20
104.0909061431884
 40
0.6499999761581421
 50
0.0
 51
360.0
 73
     1
 97
        0
 75
     0
 76
     1
 98
        0
  0
LINE
  5
166
330
1F
100
AcDbEntity
  8
A
  6
BLEU
 62
     5
100
AcDbLine
 10
234.7537796497344
 20
90.07575511932371
 30
0.0
 11
234.7537796497344
 21
103.4409061737288
 31
0.0
  0
TEXT
  5
167
330
1F
100
AcDbEntity
  8
A
  6
FIN
 62
     4
100
AcDbText
 10
233.8565328395407
 20
95.52362887549394
 30
0.0
 40
1.163758076088768
  1
116
 50
90.0
 41
1.149999999999999
  7
ARIAL
 72
     4
 11
233.2821952078556
 21
97.08333063125609
 31
0.0
100
AcDbText
  0
LINE
  5
168
330
1F
100
AcDbEntity
  8
A
  6
BLEU
 62
     5
100
AcDbLine
 10
108.6174204349517
 20
90.07575511932371
 30
0.0
 11
108.6174204349517
 21
191.6856000423431
 31
0.0
  0
TEXT
  5
169
330
1F
100
AcDbEntity
  8
A
  6
FIN
 62
     4
100
AcDbText
 10
107.719770025689
 20
115.8694265680268
 30
0.0
 40
1.163758076088768
  1
403
 50
90.0
 41
1.149999999999999
  7
ARIAL
 72
     4
 11
107.1458293101282
 21
117.429128323789
 31
0.0
100
AcDbText
  0
LINE
  5
16A
330
1F
100
AcDbEntity
  8
A
  6
BLEU
 62
     5
100
AcDbLine
 10
207.3734775714645
 20
104.0909061431884
 30
0.0
 11
234.103779680275
 21
104.0909061431884
 31
0.0
  0
LINE
  5
16B
330
1F
100
AcDbEntity
  8
A
  6
BLEU
 62
     5
100
AcDbLine
 10
115.6249959468842
 20
163.6552979946136
 30
0.0
 11
115.6249959468842
 21
191.6856000423431
 31
0.0
  0
LINE
  5
16C
330
1F
100
AcDbEntity
  8
A
  6
BLEU
 62
     5
100
AcDbLine
 10
235.4037796191939
 20
104.0909061431884
 30
0.0
 11
238.2575674057006
 21
104.0909061431884
 31
0.0
  0
TEXT
  5
16D
330
1F
100
AcDbEntity
  8
A
  6
FIN
 62
     4
100
AcDbText
 10
234.4200507490758
 20
104.988159636327
 30
0.0
 40
1.163758076088768
  1
116
 41
1.149999999999999
  7
ARIAL
 72
     4
 11
235.9797525048379
 21
105.562497268012
 31
0.0
100
AcDbText
  0
LINE
  5
16E
330
1F
100
AcDbEntity
  8
A
  6
BLEU
 62
     5
100
AcDbLine
 10
136.6477224826813
 20
90.07575511932371
 30
0.0
 11
136.6477224826813
 21
191.6856000423431
 31
0.0
  0
TEXT
  5
16F
330
1F
100
AcDbEntity
  8
A
  6
FIN
 62
     4
100
AcDbText
 10
135.7504756724875
 20
115.8694265680268
 30
0.0
 40
1.163758076088768
  1
404
 50
90.0
 41
1.149999999999999
  7
ARIAL
 72
     4
 11
135.1761380408025
 21
117.429128323789
 31
0.0
100
AcDbText
  0
LINE
  5
170
330
1F
100
AcDbEntity
  8
A
  6
BLEU
 62
     5
100
AcDbLine
 10
150.6628735065459
 20
125.7636326484451
 30
0.0
 11
150.6628735065459
 21
128.6174204349518
 31
0.0
  0
LINE
  5
171
330
1F
100
AcDbEntity
  8
B
  6
MOYEN
 62
     4
100
AcDbLine
 10
239.3083953857421
 20
139.2078857421874
 30
0.0
 11
232.1272277832031
 21
139.1901092529297
 31
0.0
  0
LINE
  5
173
330
1F
100
AcDbEntity
  8
B
  6
MOYEN
 62
     4
100
AcDbLine
 10
155.2174987792969
 20
139.2078857421874
 30
0.0
 11
143.3046112060546
 21
139.2078857421874
 31
0.0
  0
LINE
  5
174
330
1F
100
AcDbEntity
  8
B
  6
MOYEN
 62
     4
100
AcDbLine
 10
67.97348022460939
 20
139.1288604736327
 30
0.0
 11
59.56439208984375
 21
139.1288604736327
 31
0.0
  0
LINE
  5
175
330
1F
100
AcDbEntity
  8
B
  6
MOYEN
 62
     4
100
AcDbLine
 10
98.80680847167969
 20
139.1287841796875
 30
0.0
 11
86.89394378662109
 21
139.1287841796875
 31
0.0
  0
LINE
  5
176
330
1F
100
AcDbEntity
  8
B
  6
MOYEN
 62
     4
100
AcDbLine
 10
230.2809600830078
 20
139.1287994384766
 30
0.0
 11
223.9741668701171
 21
139.1288146972655
 31
0.0
  0
LINE
  5
177
330
1F
100
AcDbEntity
  8
B
  6
MOYEN
 62
     4
100
AcDbLine
 10
180.7954559326171
 20
139.1287841796875
 30
0.0
 11
173.0871276855468
 21
139.1287841796875
 31
0.0
  0
LINE
  5
178
330
1F
100
AcDbEntity
  8
B
  6
MOYEN
 62
     4
100
AcDbLine
 10
69.02431488037109
 20
182.4796600341796
 30
0.0
 11
59.04536056518555
 21
182.5400238037109
 31
0.0
  0
LINE
  5
179
330
1F
100
AcDbEntity
  8
B
  6
MOYEN
 62
     4
100
AcDbLine
 10
98.80680847167969
 20
182.5757598876953
 30
0.0
 11
86.89394378662109
 21
182.5757598876953
 31
0.0
  0
LINE
  5
17A
330
1F
100
AcDbEntity
  8
B
  6
MOYEN
 62
     4
100
AcDbLine
 10
155.2174987792969
 20
182.6548614501953
 30
0.0
 11
143.3046112060546
 21
182.6548614501953
 31
0.0
  0
LINE
  5
17B
330
1F
100
AcDbEntity
  8
B
  6
MOYEN
 62
     4
100
AcDbLine
 10
180.7954559326171
 20
182.5757598876953
 30
0.0
 11
173.0871276855468
 21
182.5757598876953
 31
0.0
  0
LINE
  5
17C
330
1F
100
AcDbEntity
  8
B
  6
MOYEN
 62
     4
100
AcDbLine
 10
230.023696899414
 20
177.6705322265625
 30
0.0
 11
223.7164611816405
 21
177.6705474853516
 31
0.0
  0
LINE
  5
17D
330
1F
100
AcDbEntity
  8
B
  6
MOYEN
 62
     4
100
AcDbLine
 10
239.3083953857421
 20
177.7496337890625
 30
0.0
 11
231.9524536132813
 21
177.7162933349609
 31
0.0
  0
LINE
  5
17E
330
1F
100
AcDbEntity
  8
B
  6
MOYEN
 62
     4
100
AcDbLine
 10
267.6893920898438
 20
182.5757598876953
 30
0.0
 11
253.3922424316406
 21
182.6215209960938
 31
0.0
  0
LINE
  5
17F
330
1F
100
AcDbEntity
  8
B
  6
MOYEN
 62
     4
100
AcDbLine
 10
267.6893920898438
 20
139.1287841796875
 30
0.0
 11
253.3922424316406
 21
139.1901092529297
 31
0.0
  0
INSERT
  5
18C
330
1F
100
AcDbEntity
  8
B
  6
FIN
 62
     0
100
AcDbBlockReference
 66
     1
  2
004C0_000_0_3_1
 10
14.01515102386475
 20
44.52651429176331
 30
0.0
  0
ATTRIB
  5
18D
330
18C
100
AcDbEntity
  8
B
  6
FIN
 62
     1
100
AcDbText
 10
15.76704490184783
 20
45.81415595793365
 30
0.0
 40
1.629261306524276
  1
-
 41
0.9200000000000001
  7
ARIAL
 11
15.76704490184783
 21
46.62878661119578
 31
0.0
100
AcDbAttribute
  2
$NUM_EQUI
 70
     0
 74
     2
  0
ATTRIB
  5
18E
330
18C
100
AcDbEntity
  8
B
  6
FIN
 62
     3
100
AcDbText
 10
8.895591379369852
 20
44.24512133835918
 30
0.0
 40
1.280133883697645
  1
10
 41
0.9200000000000001
  7
ARIAL
 72
     4
 11
9.810616409416979
 21
44.87689273321269
 31
0.0
100
AcDbAttribute
  2
$REPERE
 70
     1
 74
     2
  0
ATTRIB
  5
18F
330
18C
100
AcDbEntity
  8
B
  6
FIN
 62
     1
100
AcDbText
 10
8.514507135337675
 20
44.24557966566633
 30
0.0
 40
1.280133883697645
  1
3-19
 41
0.9200000000000001
  7
ARIAL
 72
     4
 11
10.16098983865777
 21
44.87691445278324
 31
0.0
100
AcDbAttribute
  2
$REFTEAB00
 70
     0
 74
     2
  0
SEQEND
  5
191
330
18C
100
AcDbEntity
  8
B
  6
FIN
 62
     0
  0
INSERT
  5
190
330
1F
100
AcDbEntity
  8
B
  6
FIN
 62
     0
100
AcDbBlockReference
 66
     1
  2
004C0_000_0_3_1
 10
14.01515102386475
 20
48.03030204772949
 30
0.0
  0
ATTRIB
  5
192
330
190
100
AcDbEntity
  8
B
  6
FIN
 62
     1
100
AcDbText
 10
15.76704490184783
 20
49.31794538463602
 30
0.0
 40
1.629261306524276
  1
+
 41
0.9200000000000001
  7
ARIAL
 11
15.76704490184783
 21
50.13257603789816
 31
0.0
100
AcDbAttribute
  2
$NUM_EQUI
 70
     0
 74
     2
  0
ATTRIB
  5
193
330
190
100
AcDbEntity
  8
B
  6
FIN
 62
     3
100
AcDbText
 10
9.353103894393415
 20
47.74891076506156
 30
0.0
 40
1.280133883697645
  1
9
 41
0.9200000000000001
  7
ARIAL
 72
     4
 11
9.810616409416979
 21
48.38068215991507
 31
0.0
100
AcDbAttribute
  2
$REPERE
 70
     1
 74
     2
  0
ATTRIB
  5
194
330
190
100
AcDbEntity
  8
B
  6
FIN
 62
     1
100
AcDbText
 10
8.514507135337675
 20
47.74936742163251
 30
0.0
 40
1.280133883697645
  1
3-19
 41
0.9200000000000001
  7
ARIAL
 72
     4
 11
10.16098983865777
 21
48.38070220874943
 31
0.0
100
AcDbAttribute
  2
$REFTEAB00
 70
     0
 74
     2
  0
SEQEND
  5
1A1
330
190
100
AcDbEntity
  8
B
  6
FIN
 62
     0
  0
INSERT
  5
1A0
330
1F
100
AcDbEntity
  8
B
  6
FIN
 62
     0
100
AcDbBlockReference
 66
     1
  2
018C0_001_0_3_1
 10
31.53408980369567
 20
104.0909061431884
 30
0.0
  0
ATTRIB
  5
1A2
330
1A0
100
AcDbEntity
  8
B
  6
FIN
 62
     3
100
AcDbText
 10
26.40189428427293
 20
103.6266489191671
 30
0.0
 40
1.629261306524276
  1
23
 41
0.9200000000000001
  7
ARIAL
 72
     2
 11
28.73104890621107
 21
104.4412795724293
 31
0.0
100
AcDbAttribute
  2
$REPERE
 70
     1
 74
     2
  0
ATTRIB
  5
1A3
330
1A0
100
AcDbEntity
  8
B
  6
FIN
 62
     1
100
AcDbText
 10
25.00383247752013
 20
103.6266756509462
 30
0.0
 40
1.629261306524276
  1
1-6
 41
0.9200000000000001
  7
ARIAL
 72
     2
 11
28.03030204772948
 21
104.4413063042084
 31
0.0
100
AcDbAttribute
  2
$REFTEAB00
 70
     0
 74
     2
  0
SEQEND
  5
23D
330
1A0
100
AcDbEntity
  8
B
  6
FIN
 62
     0
  0
INSERT
  5
23C
330
1F
100
AcDbEntity
  8
B
  6
FIN
 62
     0
100
AcDbBlockReference
 66
     1
  2
_I445_KNX_0_3_1
 10
38.54166531562804
 20
90.07575511932371
 30
0.0
  0
ATTRIB
  5
23E
330
23C
100
AcDbEntity
  8
B
  6
FIN
 62
     3
100
AcDbText
 10
24.84329556000366
 20
78.51700958294528
 30
0.0
 40
2.094764536959783
  1
U10
 41
0.9200000000000001
  7
ARIAL
 72
     2
 11
29.78219592571258
 21
79.56439185142517
 31
0.0
100
AcDbAttribute
  2
$ETIQUETTE
 70
     0
 74
     2
  0
ATTRIB
  5
23F
330
23C
100
AcDbEntity
  8
B
  6
FIN
 62
     1
100
AcDbText
 10
38.00096870696383
 20
86.8635623217432
 30
0.0
 40
1.512885498915399
  1
1
 41
0.9200000000000001
  7
ARIAL
 72
     4
 11
38.54166531562804
 21
87.62310101696948
 31
0.0
100
AcDbAttribute
  2
$PL:1
 70
     0
 74
     2
  0
ATTRIB
  5
240
330
23C
100
AcDbEntity
  8
B
  6
FIN
 62
     1
100
AcDbText
 10
121.551178241488
 20
86.87646209577897
 30
0.0
 40
1.512885498915399
  1
10
 41
0.9200000000000001
  7
ARIAL
 72
     4
 11
122.6325714588165
 21
87.62310101696948
 31
0.0
100
AcDbAttribute
  2
$PL:10
 70
     0
 74
     2
  0
ATTRIB
  5
241
330
23C
100
AcDbEntity
  8
B
  6
FIN
 62
     1
100
AcDbText
 10
128.5587537534204
 20
86.8635623217432
 30
0.0
 40
1.512885498915399
  1
11
 41
0.9200000000000001
  7
ARIAL
 72
     4
 11
129.6401469707489
 21
87.62310101696948
 31
0.0
100
AcDbAttribute
  2
$PL:11
 70
     0
 74
     2
  0
ATTRIB
  5
242
330
23C
100
AcDbEntity
  8
B
  6
FIN
 62
     1
100
AcDbText
 10
135.5663292653529
 20
86.8635623217432
 30
0.0
 40
1.512885498915399
  1
12
 41
0.9200000000000001
  7
ARIAL
 72
     4
 11
136.6477224826813
 21
87.62310101696948
 31
0.0
100
AcDbAttribute
  2
$PL:12
 70
     0
 74
     2
  0
ATTRIB
  5
243
330
23C
100
AcDbEntity
  8
B
  6
FIN
 62
     1
100
AcDbText
 10
149.5814802892175
 20
86.87697808674041
 30
0.0
 40
1.512885498915399
  1
13
 41
0.9200000000000001
  7
ARIAL
 72
     4
 11
150.6628735065459
 21
87.62310101696948
 31
0.0
100
AcDbAttribute
  2
$PL:13
 70
     0
 74
     2
  0
ATTRIB
  5
244
330
23C
100
AcDbEntity
  8
B
  6
FIN
 62
     1
100
AcDbText
 10
156.58905580115
 20
86.8635623217432
 30
0.0
 40
1.512885498915399
  1
14
 41
0.9200000000000001
  7
ARIAL
 72
     4
 11
157.6704490184784
 21
87.62310101696948
 31
0.0
100
AcDbAttribute
  2
$PL:14
 70
     0
 74
     2
  0
ATTRIB
  5
245
330
23C
100
AcDbEntity
  8
B
  6
FIN
 62
     1
100
AcDbText
 10
163.5966313130824
 20
86.87646209577897
 30
0.0
 40
1.512885498915399
  1
15
 41
0.9200000000000001
  7
ARIAL
 72
     4
 11
164.6780245304108
 21
87.62310101696948
 31
0.0
100
AcDbAttribute
  2
$PL:15
 70
     0
 74
     2
  0
ATTRIB
  5
246
330
23C
100
AcDbEntity
  8
B
  6
FIN
 62
     1
100
AcDbText
 10
177.611782336947
 20
86.87646209577897
 30
0.0
 40
1.512885498915399
  1
16
 41
0.9200000000000001
  7
ARIAL
 72
     4
 11
178.6931755542755
 21
87.62310101696948
 31
0.0
100
AcDbAttribute
  2
$PL:16
 70
     0
 74
     2
  0
ATTRIB
  5
247
330
23C
100
AcDbEntity
  8
B
  6
FIN
 62
     1
100
AcDbText
 10
184.6193578488795
 20
86.8635623217432
 30
0.0
 40
1.512885498915399
  1
17
 41
0.9200000000000001
  7
ARIAL
 72
     4
 11
185.7007510662079
 21
87.62310101696948
 31
0.0
100
AcDbAttribute
  2
$PL:17
 70
     0
 74
     2
  0
ATTRIB
  5
248
330
23C
100
AcDbEntity
  8
B
  6
FIN
 62
     1
100
AcDbText
 10
191.6269333608118
 20
86.87646209577897
 30
0.0
 40
1.512885498915399
  1
18
 41
0.9200000000000001
  7
ARIAL
 72
     4
 11
192.7083265781402
 21
87.62310101696948
 31
0.0
100
AcDbAttribute
  2
$PL:18
 70
     0
 74
     2
  0
ATTRIB
  5
249
330
23C
100
AcDbEntity
  8
B
  6
FIN
 62
     1
100
AcDbText
 10
205.6420843846765
 20
86.87646209577897
 30
0.0
 40
1.512885498915399
  1
19
 41
0.9200000000000001
  7
ARIAL
 72
     4
 11
206.723477602005
 21
87.62310101696948
 31
0.0
100
AcDbAttribute
  2
$PL:19
 70
     0
 74
     2
  0
ATTRIB
  5
24A
330
23C
100
AcDbEntity
  8
B
  6
FIN
 62
     1
100
AcDbText
 10
45.00854421889622
 20
86.8635623217432
 30
0.0
 40
1.512885498915399
  1
2
 41
0.9200000000000001
  7
ARIAL
 72
     4
 11
45.54924082756043
 21
87.62310101696948
 31
0.0
100
AcDbAttribute
  2
$PL:2
 70
     0
 74
     2
  0
ATTRIB
  5
24B
330
23C
100
AcDbEntity
  8
B
  6
FIN
 62
     1
100
AcDbText
 10
212.649659896609
 20
86.87646209577897
 30
0.0
 40
1.512885498915399
  1
20
 41
0.9200000000000001
  7
ARIAL
 72
     4
 11
213.7310531139374
 21
87.62310101696948
 31
0.0
100
AcDbAttribute
  2
$PL:20
 70
     0
 74
     2
  0
ATTRIB
  5
24C
330
23C
100
AcDbEntity
  8
B
  6
FIN
 62
     1
100
AcDbText
 10
220.0076222036717
 20
86.8635623217432
 30
0.0
 40
1.512885498915399
  1
21
 41
0.9200000000000001
  7
ARIAL
 72
     4
 11
221.0890154210001
 21
87.62310101696948
 31
0.0
100
AcDbAttribute
  2
$PL:21
 70
     0
 74
     2
  0
ATTRIB
  5
24D
330
23C
100
AcDbEntity
  8
B
  6
FIN
 62
     1
100
AcDbText
 10
233.672386432406
 20
86.8635623217432
 30
0.0
 40
1.512885498915399
  1
22
 41
0.9200000000000001
  7
ARIAL
 72
     4
 11
234.7537796497344
 21
87.62310101696948
 31
0.0
100
AcDbAttribute
  2
$PL:22
 70
     0
 74
     2
  0
ATTRIB
  5
24E
330
23C
100
AcDbEntity
  8
B
  6
FIN
 62
     1
100
AcDbText
 10
240.6799619443384
 20
86.87697808674041
 30
0.0
 40
1.512885498915399
  1
23
 41
0.9200000000000001
  7
ARIAL
 72
     4
 11
241.7613551616669
 21
87.62310101696948
 31
0.0
100
AcDbAttribute
  2
$PL:23
 70
     0
 74
     2
  0
ATTRIB
  5
24F
330
23C
100
AcDbEntity
  8
B
  6
FIN
 62
     1
100
AcDbText
 10
247.6875374562708
 20
86.8635623217432
 30
0.0
 40
1.512885498915399
  1
24
 41
0.9200000000000001
  7
ARIAL
 72
     4
 11
248.7689306735992
 21
87.62310101696948
 31
0.0
100
AcDbAttribute
  2
$PL:24
 70
     0
 74
     2
  0
ATTRIB
  5
250
330
23C
100
AcDbEntity
  8
B
  6
FIN
 62
     1
100
AcDbText
 10
37.97391014094639
 20
64.69886547374831
 30
0.0
 40
1.512885498915399
  1
+
 41
0.9200000000000001
  7
ARIAL
 72
     4
 11
38.54166531562804
 21
65.19886071537484
 31
0.0
100
AcDbAttribute
  2
$PL:25
 70
     0
 74
     2
  0
ATTRIB
  5
251
330
23C
100
AcDbEntity
  8
B
  6
FIN
 62
     1
100
AcDbText
 10
45.22548745872023
 20
65.10546635135586
 30
0.0
 40
1.512885498915399
  1
-
 41
0.9200000000000001
  7
ARIAL
 72
     4
 11
45.54924082756043
 21
65.19886071537484
 31
0.0
100
AcDbAttribute
  2
$PL:26
 70
     0
 74
     2
  0
ATTRIB
  5
252
330
23C
100
AcDbEntity
  8
B
  6
FIN
 62
     1
100
AcDbText
 10
51.98906116481115
 20
64.69886547374831
 30
0.0
 40
1.512885498915399
  1
+
 41
0.9200000000000001
  7
ARIAL
 72
     4
 11
52.55681633949279
 21
65.19886071537484
 31
0.0
100
AcDbAttribute
  2
$PL:27
 70
     0
 74
     2
  0
ATTRIB
  5
253
330
23C
100
AcDbEntity
  8
B
  6
FIN
 62
     1
100
AcDbText
 10
59.24063848258497
 20
65.10546635135586
 30
0.0
 40
1.512885498915399
  1
-
 41
0.9200000000000001
  7
ARIAL
 72
     4
 11
59.56439185142517
 21
65.19886071537484
 31
0.0
100
AcDbAttribute
  2
$PL:28
 70
     0
 74
     2
  0
ATTRIB
  5
254
330
23C
100
AcDbEntity
  8
B
  6
FIN
 62
     1
100
AcDbText
 10
52.01611973082858
 20
86.87697808674041
 30
0.0
 40
1.512885498915399
  1
3
 41
0.9200000000000001
  7
ARIAL
 72
     4
 11
52.55681633949279
 21
87.62310101696948
 31
0.0
100
AcDbAttribute
  2
$PL:3
 70
     0
 74
     2
  0
ATTRIB
  5
255
330
23C
100
AcDbEntity
  8
B
  6
FIN
 62
     1
100
AcDbText
 10
66.03127075469332
 20
86.86665826751179
 30
0.0
 40
1.512885498915399
  1
4
 41
0.9200000000000001
  7
ARIAL
 72
     4
 11
66.57196736335753
 21
87.62310101696948
 31
0.0
100
AcDbAttribute
  2
$PL:4
 70
     0
 74
     2
  0
ATTRIB
  5
256
330
23C
100
AcDbEntity
  8
B
  6
FIN
 62
     1
100
AcDbText
 10
73.03884626662572
 20
86.88987786077618
 30
0.0
 40
1.512885498915399
  1
5
 41
0.9200000000000001
  7
ARIAL
 72
     4
 11
73.57954287528993
 21
87.62310101696948
 31
0.0
100
AcDbAttribute
  2
$PL:5
 70
     0
 74
     2
  0
ATTRIB
  5
257
330
23C
100
AcDbEntity
  8
B
  6
FIN
 62
     1
100
AcDbText
 10
80.0464217785581
 20
86.87646209577897
 30
0.0
 40
1.512885498915399
  1
6
 41
0.9200000000000001
  7
ARIAL
 72
     4
 11
80.5871183872223
 21
87.62310101696948
 31
0.0
100
AcDbAttribute
  2
$PL:6
 70
     0
 74
     2
  0
ATTRIB
  5
258
330
23C
100
AcDbEntity
  8
B
  6
FIN
 62
     1
100
AcDbText
 10
94.06157280242284
 20
86.87646209577897
 30
0.0
 40
1.512885498915399
  1
7
 41
0.9200000000000001
  7
ARIAL
 72
     4
 11
94.60226941108706
 21
87.62310101696948
 31
0.0
100
AcDbAttribute
  2
$PL:7
 70
     0
 74
     2
  0
ATTRIB
  5
259
330
23C
100
AcDbEntity
  8
B
  6
FIN
 62
     1
100
AcDbText
 10
101.0691483143552
 20
86.87646209577897
 30
0.0
 40
1.512885498915399
  1
8
 41
0.9200000000000001
  7
ARIAL
 72
     4
 11
101.6098449230194
 21
87.62310101696948
 31
0.0
100
AcDbAttribute
  2
$PL:8
 70
     0
 74
     2
  0
ATTRIB
  5
25A
330
23C
100
AcDbEntity
  8
B
  6
FIN
 62
     1
100
AcDbText
 10
108.0767238262875
 20
86.87646209577897
 30
0.0
 40
1.512885498915399
  1
9
 41
0.9200000000000001
  7
ARIAL
 72
     4
 11
108.6174204349517
 21
87.62310101696948
 31
0.0
100
AcDbAttribute
  2
$PL:9
 70
     0
 74
     2
  0
ATTRIB
  5
25B
330
23C
100
AcDbEntity
  8
B
  6
FIN
 62
     1
100
AcDbText
 10
13.36973324294214
 20
73.14370613497295
 30
0.0
 40
1.629261306524276
  1
5WG1512-1AB01
 41
0.9200000000000001
  7
ARIAL
 72
     2
 11
29.78219592571258
 21
73.95833678823509
 31
0.0
100
AcDbAttribute
  2
CODE
 70
     0
 74
     2
  0
ATTRIB
  5
25C
330
23C
100
AcDbEntity
  8
B
  6
FIN
 62
     1
100
AcDbText
 10
20.35719710875657
 20
75.59635355438242
 30
0.0
 40
1.629261306524276
  1
SIEMENS
 41
0.9200000000000001
  7
ARIAL
 72
     2
 11
29.78219592571258
 21
76.41098420764456
 31
0.0
100
AcDbAttribute
  2
FABRICANT
 70
     0
 74
     2
  0
ATTRIB
  5
25D
330
23C
100
AcDbEntity
  8
B
  6
FIN
 62
     1
100
AcDbText
 10
18.54745010224625
 20
67.88802450102368
 30
0.0
 40
1.629261306524276
  1
@I445.@IM
 41
0.9200000000000001
  7
ARIAL
 72
     2
 11
29.78219592571258
 21
68.70265515428582
 31
0.0
100
AcDbAttribute
  2
SYMBOLE
 70
     1
 74
     2
  0
SEQEND
  5
25F
330
23C
100
AcDbEntity
  8
B
  6
FIN
 62
     0
  0
INSERT
  5
25E
330
1F
100
AcDbEntity
  8
B
  6
FIN
 62
     0
100
AcDbBlockReference
 66
     1
  2
018C0_001_0_3_1
 10
59.56439185142517
 20
125.1136326789856
 30
0.0
  0
ATTRIB
  5
260
330
25E
100
AcDbEntity
  8
B
  6
FIN
 62
     3
100
AcDbText
 10
54.432209697892
 20
124.6493754549642
 30
0.0
 40
1.629261306524276
  1
22
 41
0.9200000000000001
  7
ARIAL
 72
     2
 11
56.76136431983014
 21
125.4640061082264
 31
0.0
100
AcDbAttribute
  2
$REPERE
 70
     1
 74
     2
  0
ATTRIB
  5
261
330
25E
100
AcDbEntity
  8
B
  6
FIN
 62
     1
100
AcDbText
 10
53.03413452524963
 20
124.6494021867433
 30
0.0
 40
1.629261306524276
  1
1-6
 41
0.9200000000000001
  7
ARIAL
 72
     2
 11
56.06060409545897
 21
125.4640328400054
 31
0.0
100
AcDbAttribute
  2
$REFTEAB00
 70
     0
 74
     2
  0
SEQEND
  5
277
330
25E
100
AcDbEntity
  8
B
  6
FIN
 62
     0
  0
INSERT
  5
276
330
1F
100
AcDbEntity
  8
B
  6
FIN
 62
     0
100
AcDbBlockReference
 66
     1
  2
R05C0N_R01_0_3_1
 10
63.06817960739135
 20
167.1590857505798
 30
0.0
  0
ATTRIB
  5
278
330
276
100
AcDbEntity
  8
B
  6
FIN
 62
     4
100
AcDbText
 10
53.32693756632842
 20
160.2244641051377
 30
0.0
 40
1.605986145002501
  1
2000 W
 41
0.9200000000000001
  7
ARIAL
 72
     2
 11
60.44033879041672
 21
161.027457177639
 31
0.0
100
AcDbAttribute
  2
GRANDEUR
 70
     0
 74
     2
  0
ATTRIB
  5
279
330
276
100
AcDbEntity
  8
B
  6
FIN
 62
     3
100
AcDbText
 10
56.99875211023947
 20
162.9582891553745
 30
0.0
 40
2.094764536959783
  1
R1
 41
0.9200000000000001
  7
ARIAL
 72
     2
 11
60.44033879041672
 21
164.0056714238544
 31
0.0
100
AcDbAttribute
  2
$NOMCOMP
 70
     0
 74
     2
  0
ATTRIB
  5
27A
330
276
100
AcDbEntity
  8
B
  6
FIN
 62
     1
100
AcDbText
 10
63.7689398317625
 20
167.4537766547341
 30
0.0
 40
1.512885498915399
  1
1
 41
0.9200000000000001
  7
ARIAL
 11
63.7689398317625
 21
168.2102194041918
 31
0.0
100
AcDbAttribute
  2
$PL:1
 70
     0
 74
     2
  0
ATTRIB
  5
27B
330
276
100
AcDbEntity
  8
B
  6
FIN
 62
     1
100
AcDbText
 10
63.7689398317625
 20
158.5191205501982
 30
0.0
 40
1.512885498915399
  1
2
 41
0.9200000000000001
  7
ARIAL
 11
63.7689398317625
 21
159.2755632996559
 31
0.0
100
AcDbAttribute
  2
$PL:2
 70
     0
 74
     2
  0
SEQEND
  5
27D
330
276
100
AcDbEntity
  8
B
  6
FIN
 62
     0
  0
INSERT
  5
27C
330
1F
100
AcDbEntity
  8
B
  6
FIN
 62
     0
100
AcDbBlockReference
 66
     1
  2
018C0_001_0_3_1
 10
63.06817960739135
 20
104.0909061431884
 30
0.0
  0
ATTRIB
  5
27E
330
27C
100
AcDbEntity
  8
B
  6
FIN
 62
     3
100
AcDbText
 10
59.10057476482724
 20
103.6266556021119
 30
0.0
 40
1.629261306524276
  1
5
 41
0.9200000000000001
  7
ARIAL
 72
     2
 11
60.26515207579631
 21
104.441286255374
 31
0.0
100
AcDbAttribute
  2
$REPERE
 70
     1
 74
     2
  0
ATTRIB
  5
27F
330
27C
100
AcDbEntity
  8
B
  6
FIN
 62
     1
100
AcDbText
 10
56.53792228121582
 20
103.6266756509462
 30
0.0
 40
1.629261306524276
  1
3-9
 41
0.9200000000000001
  7
ARIAL
 72
     2
 11
59.56439185142517
 21
104.4413063042084
 31
0.0
100
AcDbAttribute
  2
$REFTEAB00
 70
     0
 74
     2
  0
SEQEND
  5
2C9
330
27C
100
AcDbEntity
  8
B
  6
FIN
 62
     0
  0
INSERT
  5
2C8
330
1F
100
AcDbEntity
  8
B
  6
FIN
 62
     0
100
AcDbBlockReference
 66
     1
  2
X12C0_X01_0_3_1
 10
63.06817960739135
 20
132.1212081909179
 30
0.0
  0
ATTRIB
  5
2CA
330
2C8
100
AcDbEntity
  8
B
  6
FIN
 62
     3
100
AcDbText
 10
64.46969337318889
 20
133.6428558324012
 30
0.0
 40
1.86201292174203
  1
20
 41
0.9200000000000001
  7
ARIAL
 11
64.46969337318889
 21
134.5738622932722
 31
0.0
100
AcDbAttribute
  2
$BORNE
 70
     0
 74
     2
  0
ATTRIB
  5
2CB
330
2C8
100
AcDbEntity
  8
B
  6
FIN
 62
     3
100
AcDbText
 10
58.7395205622987
 20
133.6428558324012
 30
0.0
 40
1.86201292174203
  1
X2
 41
0.9200000000000001
  7
ARIAL
 72
     2
 11
61.66666584159385
 21
134.5738622932722
 31
0.0
100
AcDbAttribute
  2
$NOMCOMP
 70
     0
 74
     2
  0
SEQEND
  5
2CD
330
2C8
100
AcDbEntity
  8
B
  6
FIN
 62
     0
  0
INSERT
  5
2CC
330
1F
100
AcDbEntity
  8
B
  6
FIN
 62
     0
100
AcDbBlockReference
 66
     1
  2
018C0_001_0_3_1
 10
77.08333063125609
 20
125.1136326789856
 30
0.0
  0
ATTRIB
  5
2CE
330
2CC
100
AcDbEntity
  8
B
  6
FIN
 62
     3
100
AcDbText
 10
73.115725788692
 20
124.6493754549642
 30
0.0
 40
1.629261306524276
  1
6
 41
0.9200000000000001
  7
ARIAL
 72
     2
 11
74.28030309966107
 21
125.4640061082264
 31
0.0
100
AcDbAttribute
  2
$REPERE
 70
     1
 74
     2
  0
ATTRIB
  5
2CF
330
2CC
100
AcDbEntity
  8
B
  6
FIN
 62
     1
100
AcDbText
 10
70.55307330508057
 20
124.6494021867433
 30
0.0
 40
1.629261306524276
  1
3-9
 41
0.9200000000000001
  7
ARIAL
 72
     2
 11
73.57954287528993
 21
125.4640328400054
 31
0.0
100
AcDbAttribute
  2
$REFTEAB00
 70
     0
 74
     2
  0
SEQEND
  5
2E4
330
2CC
100
AcDbEntity
  8
B
  6
FIN
 62
     0
  0
INSERT
  5
2E3
330
1F
100
AcDbEntity
  8
B
  6
FIN
 62
     0
100
AcDbBlockReference
 66
     1
  2
028C0_002_0_3_1
 10
87.59469389915466
 20
153.143934726715
 30
0.0
 41
0.1428571492433548
  0
ATTRIB
  5
2E5
330
2E3
100
AcDbEntity
  8
B
  6
FIN
 62
     3
100
AcDbText
 10
88.09523309773705
 20
163.4838626651253
 30
0.0
 40
2.094764536959783
  1
1
 41
0.9200000000000001
  7
ARIAL
 11
88.09523309773705
 21
164.5312449336052
 31
0.0
100
AcDbAttribute
  2
$NOMCOMP
 70
     0
 74
     2
  0
SEQEND
  5
2E7
330
2E3
100
AcDbEntity
  8
B
  6
FIN
 62
     0
  0
INSERT
  5
2E6
330
1F
100
AcDbEntity
  8
B
  6
FIN
 62
     0
100
AcDbBlockReference
 66
     1
  2
X12C0_X01_0_3_1
 10
91.09848165512085
 20
132.1212081909179
 30
0.0
  0
ATTRIB
  5
2E8
330
2E6
100
AcDbEntity
  8
B
  6
FIN
 62
     3
100
AcDbText
 10
92.49999542091835
 20
133.6428558324012
 30
0.0
 40
1.86201292174203
  1
21
 41
0.9200000000000001
  7
ARIAL
 11
92.49999542091835
 21
134.5738622932722
 31
0.0
100
AcDbAttribute
  2
$BORNE
 70
     0
 74
     2
  0
ATTRIB
  5
2E9
330
2E6
100
AcDbEntity
  8
B
  6
FIN
 62
     3
100
AcDbText
 10
86.76982261002818
 20
133.6428558324012
 30
0.0
 40
1.86201292174203
  1
X2
 41
0.9200000000000001
  7
ARIAL
 72
     2
 11
89.69696788932333
 21
134.5738622932722
 31
0.0
100
AcDbAttribute
  2
$NOMCOMP
 70
     0
 74
     2
  0
SEQEND
  5
2FF
330
2E6
100
AcDbEntity
  8
B
  6
FIN
 62
     0
  0
INSERT
  5
2FE
330
1F
100
AcDbEntity
  8
B
  6
FIN
 62
     0
100
AcDbBlockReference
 66
     1
  2
H10C0N_H01_0_3_1
 10
101.6098449230194
 20
167.1590857505798
 30
0.0
  0
ATTRIB
  5
300
330
2FE
100
AcDbEntity
  8
B
  6
FIN
 62
     4
100
AcDbText
 10
92.50483437830169
 20
156.1834652586599
 30
0.0
 40
1.629261306524276
  1
V
 41
0.9200000000000001
  7
ARIAL
 72
     2
 11
93.90150918671587
 21
156.998095911922
 31
0.0
100
AcDbAttribute
  2
UNITE_UE
 70
     0
 74
     2
  0
ATTRIB
  5
301
330
2FE
100
AcDbEntity
  8
B
  6
FIN
 62
     3
100
AcDbText
 10
92.30840226439488
 20
176.2726933207577
 30
0.0
 40
2.094764536959783
  1
L1
 41
0.9200000000000001
  7
ARIAL
 72
     2
 11
95.30302963545819
 21
177.3200755892376
 31
0.0
100
AcDbAttribute
  2
$NOMCOMP
 70
     0
 74
     2
  0
ATTRIB
  5
302
330
2FE
100
AcDbEntity
  8
B
  6
FIN
 62
     1
100
AcDbText
 10
102.485791862011
 20
166.9282165108728
 30
0.0
 40
1.512885498915399
  1
X1
 41
0.9200000000000001
  7
ARIAL
 11
102.485791862011
 21
167.6846592603306
 31
0.0
100
AcDbAttribute
  2
$PL:1
 70
     0
 74
     2
  0
ATTRIB
  5
303
330
2FE
100
AcDbEntity
  8
B
  6
FIN
 62
     1
100
AcDbText
 10
102.485791862011
 20
159.0446940599489
 30
0.0
 40
1.512885498915399
  1
X2
 41
0.9200000000000001
  7
ARIAL
 11
102.485791862011
 21
159.8011368094066
 31
0.0
100
AcDbAttribute
  2
$PL:2
 70
     0
 74
     2
  0
ATTRIB
  5
304
330
2FE
100
AcDbEntity
  8
B
  6
FIN
 62
     1
100
AcDbText
 10
92.38929685754708
 20
149.7014632564783
 30
0.0
 40
1.629261306524276
  1
N
 41
0.9200000000000001
  7
ARIAL
 72
     2
 11
93.90150918671587
 21
150.5160939097405
 31
0.0
100
AcDbAttribute
  2
COULEUR
 70
     0
 74
     2
  0
ATTRIB
  5
305
330
2FE
100
AcDbEntity
  8
B
  6
FIN
 62
     4
100
AcDbText
 10
96.70938235863905
 20
154.9571448904275
 30
0.0
 40
1.629261306524276
  1
V
 41
0.9200000000000001
  7
ARIAL
 72
     2
 11
98.10605716705323
 21
155.7717755436897
 31
0.0
100
AcDbAttribute
  2
TYPE
 70
     1
 74
     2
  0
ATTRIB
  5
306
330
2FE
100
AcDbEntity
  8
B
  6
FIN
 62
     1
100
AcDbText
 10
87.95512315145444
 20
156.1834652586599
 30
0.0
 40
1.629261306524276
  1
230
 41
0.9200000000000001
  7
ARIAL
 72
     2
 11
91.44885508436166
 21
156.998095911922
 31
0.0
100
AcDbAttribute
  2
UE
 70
     0
 74
     2
  0
SEQEND
  5
31B
330
2FE
100
AcDbEntity
  8
B
  6
FIN
 62
     0
  0
INSERT
  5
31A
330
1F
100
AcDbEntity
  8
B
  6
FIN
 62
     0
100
AcDbBlockReference
 66
     1
  2
H03C0N_H01_0_3_1
 10
115.6249959468842
 20
163.6552979946136
 30
0.0
  0
ATTRIB
  5
31C
330
31A
100
AcDbEntity
  8
B
  6
FIN
 62
     4
100
AcDbText
 10
113.177187484858
 20
153.9060112368156
 30
0.0
 40
1.629261306524276
  1
V
 41
0.9200000000000001
  7
ARIAL
 72
     2
 11
114.5738622932722
 21
154.7206418900778
 31
0.0
100
AcDbAttribute
  2
UNITE_UE
 70
     0
 74
     2
  0
ATTRIB
  5
31D
330
31A
100
AcDbEntity
  8
B
  6
FIN
 62
     3
100
AcDbText
 10
118.0440578882379
 20
166.4620769113407
 30
0.0
 40
2.094764536959783
  1
U12
 41
0.9200000000000001
  7
ARIAL
 72
     2
 11
122.9829582539469
 21
167.5094591798206
 31
0.0
100
AcDbAttribute
  2
$NOMCOMP
 70
     0
 74
     2
  0
ATTRIB
  5
31E
330
31A
100
AcDbEntity
  8
B
  6
FIN
 62
     1
100
AcDbText
 10
116.5009428858757
 20
163.4244287549067
 30
0.0
 40
1.512885498915399
  1
1
 41
0.9200000000000001
  7
ARIAL
 11
116.5009428858757
 21
164.1808715043644
 31
0.0
100
AcDbAttribute
  2
$PL:1
 70
     0
 74
     2
  0
ATTRIB
  5
31F
330
31A
100
AcDbEntity
  8
B
  6
FIN
 62
     1
100
AcDbText
 10
116.5009428858757
 20
155.8912797332236
 30
0.0
 40
1.512885498915399
  1
2
 41
0.9200000000000001
  7
ARIAL
 11
116.5009428858757
 21
156.6477224826813
 31
0.0
100
AcDbAttribute
  2
$PL:2
 70
     0
 74
     2
  0
ATTRIB
  5
320
330
31A
100
AcDbEntity
  8
B
  6
FIN
 62
     1
100
AcDbText
 10
109.3354426254588
 20
154.081197951436
 30
0.0
 40
1.629261306524276
  1
SON
 41
0.9200000000000001
  7
ARIAL
 72
     2
 11
113.8731020689011
 21
154.8958286046981
 31
0.0
100
AcDbAttribute
  2
TYPE
 70
     1
 74
     2
  0
ATTRIB
  5
321
330
31A
100
AcDbEntity
  8
B
  6
FIN
 62
     1
100
AcDbText
 10
109.3282364823818
 20
153.9060112368156
 30
0.0
 40
1.629261306524276
  1
230
 41
0.9200000000000001
  7
ARIAL
 72
     2
 11
112.821968415289
 21
154.7206418900778
 31
0.0
100
AcDbAttribute
  2
UE
 70
     0
 74
     2
  0
SEQEND
  5
323
330
31A
100
AcDbEntity
  8
B
  6
FIN
 62
     0
  0
INSERT
  5
322
330
1F
100
AcDbEntity
  8
B
  6
FIN
 62
     0
100
AcDbBlockReference
 66
     1
  2
X12C0_X01_0_3_1
 10
115.6249959468842
 20
132.1212081909179
 30
0.0
  0
ATTRIB
  5
324
330
322
100
AcDbEntity
  8
B
  6
FIN
 62
     3
100
AcDbText
 10
117.0265163956265
 20
133.6428558324012
 30
0.0
 40
1.86201292174203
  1
22
 41
0.9200000000000001
  7
ARIAL
 11
117.0265163956265
 21
134.5738622932722
 31
0.0
100
AcDbAttribute
  2
$BORNE
 70
     0
 74
     2
  0
ATTRIB
  5
325
330
322
100
AcDbEntity
  8
B
  6
FIN
 62
     3
100
AcDbText
 10
111.2963302188467
 20
133.6428558324012
 30
0.0
 40
1.86201292174203
  1
X2
 41
0.9200000000000001
  7
ARIAL
 72
     2
 11
114.2234754981418
 21
134.5738622932722
 31
0.0
100
AcDbAttribute
  2
$NOMCOMP
 70
     0
 74
     2
  0
SEQEND
  5
327
330
322
100
AcDbEntity
  8
B
  6
FIN
 62
     0
  0
INSERT
  5
326
330
1F
100
AcDbEntity
  8
B
  6
FIN
 62
     0
100
AcDbBlockReference
 66
     1
  2
H10C0N_H01_0_3_1
 10
143.6552979946136
 20
174.1666612625121
 30
0.0
  0
ATTRIB
  5
328
330
326
100
AcDbEntity
  8
B
  6
FIN
 62
     4
100
AcDbText
 10
140.8571027374571
 20
164.5925612193345
 30
0.0
 40
1.629261306524276
  1
V
 41
0.9200000000000001
  7
ARIAL
 72
     2
 11
142.2537775458713
 21
165.4071918725966
 31
0.0
100
AcDbAttribute
  2
UNITE_UE
 70
     0
 74
     2
  0
ATTRIB
  5
329
330
326
100
AcDbEntity
  8
B
  6
FIN
 62
     3
100
AcDbText
 10
137.4106971487309
 20
172.0681453404204
 30
0.0
 40
2.094764536959783
  1
H2
 41
0.9200000000000001
  7
ARIAL
 72
     2
 11
140.8522838289082
 21
173.1155276089002
 31
0.0
100
AcDbAttribute
  2
$NOMCOMP
 70
     0
 74
     2
  0
ATTRIB
  5
32A
330
326
100
AcDbEntity
  8
B
  6
FIN
 62
     1
100
AcDbText
 10
144.5312449336052
 20
173.9357920228052
 30
0.0
 40
1.512885498915399
  1
X1
 41
0.9200000000000001
  7
ARIAL
 11
144.5312449336052
 21
174.6922347722629
 31
0.0
100
AcDbAttribute
  2
$PL:1
 70
     0
 74
     2
  0
ATTRIB
  5
32B
330
326
100
AcDbEntity
  8
B
  6
FIN
 62
     1
100
AcDbText
 10
144.5312449336052
 20
166.0522695718812
 30
0.0
 40
1.512885498915399
  1
X2
 41
0.9200000000000001
  7
ARIAL
 11
144.5312449336052
 21
166.8087123213389
 31
0.0
100
AcDbAttribute
  2
$PL:2
 70
     0
 74
     2
  0
ATTRIB
  5
32C
330
326
100
AcDbEntity
  8
B
  6
FIN
 62
     4
100
AcDbText
 10
138.7548354302333
 20
161.9647204023599
 30
0.0
 40
1.629261306524276
  1
V
 41
0.9200000000000001
  7
ARIAL
 72
     2
 11
140.1515102386474
 21
162.7793510556221
 31
0.0
100
AcDbAttribute
  2
TYPE
 70
     1
 74
     2
  0
ATTRIB
  5
32D
330
326
100
AcDbEntity
  8
B
  6
FIN
 62
     1
100
AcDbText
 10
137.0081651008705
 20
164.5925612193345
 30
0.0
 40
1.629261306524276
  1
230
 41
0.9200000000000001
  7
ARIAL
 72
     2
 11
140.5018970337778
 21
165.4071918725966
 31
0.0
100
AcDbAttribute
  2
UE
 70
     0
 74
     2
  0
SEQEND
  5
32F
330
326
100
AcDbEntity
  8
B
  6
FIN
 62
     0
  0
INSERT
  5
32E
330
1F
100
AcDbEntity
  8
B
  6
FIN
 62
     0
100
AcDbBlockReference
 66
     1
  2
X12C0_X01_0_3_1
 10
143.6552979946136
 20
132.1212081909179
 30
0.0
  0
ATTRIB
  5
330
330
32E
100
AcDbEntity
  8
B
  6
FIN
 62
     3
100
AcDbText
 10
145.056818443356
 20
133.6428558324012
 30
0.0
 40
1.86201292174203
  1
23
 41
0.9200000000000001
  7
ARIAL
 11
145.056818443356
 21
134.5738622932722
 31
0.0
100
AcDbAttribute
  2
$BORNE
 70
     0
 74
     2
  0
ATTRIB
  5
331
330
32E
100
AcDbEntity
  8
B
  6
FIN
 62
     3
100
AcDbText
 10
139.3266322665761
 20
133.6428558324012
 30
0.0
 40
1.86201292174203
  1
X2
 41
0.9200000000000001
  7
ARIAL
 72
     2
 11
142.2537775458713
 21
134.5738622932722
 31
0.0
100
AcDbAttribute
  2
$NOMCOMP
 70
     0
 74
     2
  0
SEQEND
  5
333
330
32E
100
AcDbEntity
  8
B
  6
FIN
 62
     0
  0
INSERT
  5
332
330
1F
100
AcDbEntity
  8
B
  6
FIN
 62
     0
100
AcDbBlockReference
 66
     1
  2
H10C0N_H01_0_3_1
 10
150.6628735065459
 20
163.6552979946136
 30
0.0
  0
ATTRIB
  5
334
330
332
100
AcDbEntity
  8
B
  6
FIN
 62
     4
100
AcDbText
 10
148.5654384737607
 20
154.081197951436
 30
0.0
 40
1.629261306524276
  1
V
 41
0.9200000000000001
  7
ARIAL
 72
     2
 11
149.9621132821749
 21
154.8958286046981
 31
0.0
100
AcDbAttribute
  2
UNITE_UE
 70
     0
 74
     2
  0
ATTRIB
  5
335
330
332
100
AcDbEntity
  8
B
  6
FIN
 62
     3
100
AcDbText
 10
144.4182459288841
 20
160.8560084822611
 30
0.0
 40
2.094764536959783
  1
H3
 41
0.9200000000000001
  7
ARIAL
 72
     2
 11
147.8598326090614
 21
161.903390750741
 31
0.0
100
AcDbAttribute
  2
$NOMCOMP
 70
     0
 74
     2
  0
ATTRIB
  5
336
330
332
100
AcDbEntity
  8
B
  6
FIN
 62
     1
100
AcDbText
 10
151.5388204455375
 20
163.4244287549067
 30
0.0
 40
1.512885498915399
  1
X1
 41
0.9200000000000001
  7
ARIAL
 11
151.5388204455375
 21
164.1808715043644
 31
0.0
100
AcDbAttribute
  2
$PL:1
 70
     0
 74
     2
  0
ATTRIB
  5
337
330
332
100
AcDbEntity
  8
B
  6
FIN
 62
     1
100
AcDbText
 10
151.5388204455375
 20
155.5409063039827
 30
0.0
 40
1.512885498915399
  1
X2
 41
0.9200000000000001
  7
ARIAL
 11
151.5388204455375
 21
156.2973490534404
 31
0.0
100
AcDbAttribute
  2
$PL:2
 70
     0
 74
     2
  0
ATTRIB
  5
338
330
332
100
AcDbEntity
  8
B
  6
FIN
 62
     4
100
AcDbText
 10
145.7624109421656
 20
151.4533571344613
 30
0.0
 40
1.629261306524276
  1
V
 41
0.9200000000000001
  7
ARIAL
 72
     2
 11
147.1590857505798
 21
152.2679877877235
 31
0.0
100
AcDbAttribute
  2
TYPE
 70
     1
 74
     2
  0
ATTRIB
  5
339
330
332
100
AcDbEntity
  8
B
  6
FIN
 62
     1
100
AcDbText
 10
144.7164874712846
 20
154.081197951436
 30
0.0
 40
1.629261306524276
  1
230
 41
0.9200000000000001
  7
ARIAL
 72
     2
 11
148.2102194041918
 21
154.8958286046981
 31
0.0
100
AcDbAttribute
  2
UE
 70
     0
 74
     2
  0
SEQEND
  5
33B
330
332
100
AcDbEntity
  8
B
  6
FIN
 62
     0
  0
INSERT
  5
33A
330
1F
100
AcDbEntity
  8
B
  6
FIN
 62
     0
100
AcDbBlockReference
 66
     1
  2
X12C0_X01_0_3_1
 10
150.6628735065459
 20
132.1212081909179
 30
0.0
  0
ATTRIB
  5
33C
330
33A
100
AcDbEntity
  8
B
  6
FIN
 62
     3
100
AcDbText
 10
152.0643939552883
 20
133.6428558324012
 30
0.0
 40
1.86201292174203
  1
24
 41
0.9200000000000001
  7
ARIAL
 11
152.0643939552883
 21
134.5738622932722
 31
0.0
100
AcDbAttribute
  2
$BORNE
 70
     0
 74
     2
  0
ATTRIB
  5
33D
330
33A
100
AcDbEntity
  8
B
  6
FIN
 62
     3
100
AcDbText
 10
146.3342077785085
 20
133.6428558324012
 30
0.0
 40
1.86201292174203
  1
X2
 41
0.9200000000000001
  7
ARIAL
 72
     2
 11
149.2613530578036
 21
134.5738622932722
 31
0.0
100
AcDbAttribute
  2
$NOMCOMP
 70
     1
 74
     2
  0
SEQEND
  5
33F
330
33A
100
AcDbEntity
  8
B
  6
FIN
 62
     0
  0
INSERT
  5
33E
330
1F
100
AcDbEntity
  8
B
  6
FIN
 62
     0
100
AcDbBlockReference
 66
     1
  2
H10C0N_H01_0_3_1
 10
175.1893877983093
 20
160.1515102386474
 30
0.0
  0
ATTRIB
  5
340
330
33E
100
AcDbEntity
  8
B
  6
FIN
 62
     4
100
AcDbText
 10
170.2889252339289
 20
150.5774101954698
 30
0.0
 40
1.629261306524276
  1
V
 41
0.9200000000000001
  7
ARIAL
 72
     2
 11
171.6856000423431
 21
151.3920408487319
 31
0.0
100
AcDbAttribute
  2
UNITE_UE
 70
     0
 74
     2
  0
ATTRIB
  5
341
330
33E
100
AcDbEntity
  8
B
  6
FIN
 62
     3
100
AcDbText
 10
168.2440133621658
 20
155.9507136434422
 30
0.0
 40
2.094764536959783
  1
H4
 41
0.9200000000000001
  7
ARIAL
 72
     2
 11
171.6856000423431
 21
156.998095911922
 31
0.0
100
AcDbAttribute
  2
$NOMCOMP
 70
     0
 74
     2
  0
ATTRIB
  5
342
330
33E
100
AcDbEntity
  8
B
  6
FIN
 62
     1
100
AcDbText
 10
176.0653347373009
 20
159.9206409989404
 30
0.0
 40
1.512885498915399
  1
X1
 41
0.9200000000000001
  7
ARIAL
 11
176.0653347373009
 21
160.6770837483981
 31
0.0
100
AcDbAttribute
  2
$PL:1
 70
     0
 74
     2
  0
ATTRIB
  5
343
330
33E
100
AcDbEntity
  8
B
  6
FIN
 62
     1
100
AcDbText
 10
176.0653347373009
 20
152.0371185480166
 30
0.0
 40
1.512885498915399
  1
X2
 41
0.9200000000000001
  7
ARIAL
 11
176.0653347373009
 21
152.7935612974743
 31
0.0
100
AcDbAttribute
  2
$PL:2
 70
     0
 74
     2
  0
ATTRIB
  5
344
330
33E
100
AcDbEntity
  8
B
  6
FIN
 62
     4
100
AcDbText
 10
170.2889252339289
 20
147.9495693784952
 30
0.0
 40
1.629261306524276
  1
V
 41
0.9200000000000001
  7
ARIAL
 72
     2
 11
171.6856000423431
 21
148.7642000317574
 31
0.0
100
AcDbAttribute
  2
TYPE
 70
     1
 74
     2
  0
ATTRIB
  5
345
330
33E
100
AcDbEntity
  8
B
  6
FIN
 62
     1
100
AcDbText
 10
166.4399742314528
 20
150.5774101954698
 30
0.0
 40
1.629261306524276
  1
230
 41
0.9200000000000001
  7
ARIAL
 72
     2
 11
169.93370616436
 21
151.3920408487319
 31
0.0
100
AcDbAttribute
  2
UE
 70
     0
 74
     2
  0
SEQEND
  5
347
330
33E
100
AcDbEntity
  8
B
  6
FIN
 62
     0
  0
INSERT
  5
346
330
1F
100
AcDbEntity
  8
B
  6
FIN
 62
     0
100
AcDbBlockReference
 66
     1
  2
X12C0_X01_0_3_1
 10
175.1893877983093
 20
132.1212081909179
 30
0.0
  0
ATTRIB
  5
348
330
346
100
AcDbEntity
  8
B
  6
FIN
 62
     3
100
AcDbText
 10
176.5909082470515
 20
133.6428558324012
 30
0.0
 40
1.86201292174203
  1
25
 41
0.9200000000000001
  7
ARIAL
 11
176.5909082470515
 21
134.5738622932722
 31
0.0
100
AcDbAttribute
  2
$BORNE
 70
     0
 74
     2
  0
ATTRIB
  5
349
330
346
100
AcDbEntity
  8
B
  6
FIN
 62
     3
100
AcDbText
 10
170.8607220702718
 20
133.6428558324012
 30
0.0
 40
1.86201292174203
  1
X2
 41
0.9200000000000001
  7
ARIAL
 72
     2
 11
173.7878673495669
 21
134.5738622932722
 31
0.0
100
AcDbAttribute
  2
$NOMCOMP
 70
     0
 74
     2
  0
SEQEND
  5
34B
330
346
100
AcDbEntity
  8
B
  6
FIN
 62
     0
  0
INSERT
  5
34A
330
1F
100
AcDbEntity
  8
B
  6
FIN
 62
     0
100
AcDbBlockReference
 66
     1
  2
018C0_001_0_3_1
 10
203.2196898460388
 20
104.0909061431884
 30
0.0
  0
ATTRIB
  5
34C
330
34A
100
AcDbEntity
  8
B
  6
FIN
 62
     3
100
AcDbText
 10
198.0875076925056
 20
103.6266556021119
 30
0.0
 40
1.629261306524276
  1
25
 41
0.9200000000000001
  7
ARIAL
 72
     2
 11
200.4166623144437
 21
104.441286255374
 31
0.0
100
AcDbAttribute
  2
$REPERE
 70
     1
 74
     2
  0
ATTRIB
  5
34D
330
34A
100
AcDbEntity
  8
B
  6
FIN
 62
     1
100
AcDbText
 10
195.5248552088941
 20
103.6266756509462
 30
0.0
 40
1.629261306524276
  1
2-11
 41
0.9200000000000001
  7
ARIAL
 72
     2
 11
199.7159020900726
 21
104.4413063042084
 31
0.0
100
AcDbAttribute
  2
$REFTEAB00
 70
     0
 74
     2
  0
SEQEND
  5
34F
330
34A
100
AcDbEntity
  8
B
  6
FIN
 62
     0
  0
INSERT
  5
34E
330
1F
100
AcDbEntity
  8
B
  6
FIN
 62
     0
100
AcDbBlockReference
 66
     1
  2
018C0_001_0_3_1
 10
203.2196898460388
 20
125.1136326789856
 30
0.0
  0
ATTRIB
  5
350
330
34E
100
AcDbEntity
  8
B
  6
FIN
 62
     3
100
AcDbText
 10
198.087494326616
 20
124.6493754549642
 30
0.0
 40
1.629261306524276
  1
21
 41
0.9200000000000001
  7
ARIAL
 72
     2
 11
200.4166489485541
 21
125.4640061082264
 31
0.0
100
AcDbAttribute
  2
$REPERE
 70
     1
 74
     2
  0
ATTRIB
  5
351
330
34E
100
AcDbEntity
  8
B
  6
FIN
 62
     1
100
AcDbText
 10
195.5248552088941
 20
124.6494021867433
 30
0.0
 40
1.629261306524276
  1
2-11
 41
0.9200000000000001
  7
ARIAL
 72
     2
 11
199.7159020900726
 21
125.4640328400054
 31
0.0
100
AcDbAttribute
  2
$REFTEAB00
 70
     0
 74
     2
  0
SEQEND
  5
353
330
34E
100
AcDbEntity
  8
B
  6
FIN
 62
     0
  0
INSERT
  5
352
330
1F
100
AcDbEntity
  8
B
  6
FIN
 62
     0
100
AcDbBlockReference
 66
     1
  2
H10C0N_H01_0_3_1
 10
227.746204137802
 20
174.1666612625121
 30
0.0
  0
ATTRIB
  5
354
330
352
100
AcDbEntity
  8
B
  6
FIN
 62
     4
100
AcDbText
 10
225.6487824709063
 20
164.5925612193345
 30
0.0
 40
1.629261306524276
  1
V
 41
0.9200000000000001
  7
ARIAL
 72
     2
 11
227.0454572793204
 21
165.4071918725966
 31
0.0
100
AcDbAttribute
  2
UNITE_UE
 70
     0
 74
     2
  0
ATTRIB
  5
355
330
352
100
AcDbEntity
  8
B
  6
FIN
 62
     3
100
AcDbText
 10
221.5016032919193
 20
172.0681453404204
 30
0.0
 40
2.094764536959783
  1
H7
 41
0.9200000000000001
  7
ARIAL
 72
     2
 11
224.9431899720966
 21
173.1155276089002
 31
0.0
100
AcDbAttribute
  2
$NOMCOMP
 70
     0
 74
     2
  0
ATTRIB
  5
356
330
352
100
AcDbEntity
  8
B
  6
FIN
 62
     1
100
AcDbText
 10
228.6221510767936
 20
173.9357920228052
 30
0.0
 40
1.512885498915399
  1
X1
 41
0.9200000000000001
  7
ARIAL
 11
228.6221510767936
 21
174.6922347722629
 31
0.0
100
AcDbAttribute
  2
$PL:1
 70
     0
 74
     2
  0
ATTRIB
  5
357
330
352
100
AcDbEntity
  8
B
  6
FIN
 62
     1
100
AcDbText
 10
228.6221510767936
 20
166.0522695718812
 30
0.0
 40
1.512885498915399
  1
X2
 41
0.9200000000000001
  7
ARIAL
 11
228.6221510767936
 21
166.8087123213389
 31
0.0
100
AcDbAttribute
  2
$PL:2
 70
     0
 74
     2
  0
ATTRIB
  5
358
330
352
100
AcDbEntity
  8
B
  6
FIN
 62
     4
100
AcDbText
 10
222.8457415734217
 20
161.9647204023599
 30
0.0
 40
1.629261306524276
  1
V
 41
0.9200000000000001
  7
ARIAL
 72
     2
 11
224.2424163818359
 21
162.7793510556221
 31
0.0
100
AcDbAttribute
  2
TYPE
 70
     1
 74
     2
  0
ATTRIB
  5
359
330
352
100
AcDbEntity
  8
B
  6
FIN
 62
     1
100
AcDbText
 10
221.7998314684302
 20
164.5925612193345
 30
0.0
 40
1.629261306524276
  1
230
 41
0.9200000000000001
  7
ARIAL
 72
     2
 11
225.2935634013375
 21
165.4071918725966
 31
0.0
100
AcDbAttribute
  2
UE
 70
     0
 74
     2
  0
SEQEND
  5
35B
330
352
100
AcDbEntity
  8
B
  6
FIN
 62
     0
  0
INSERT
  5
35A
330
1F
100
AcDbEntity
  8
B
  6
FIN
 62
     0
100
AcDbBlockReference
 66
     1
  2
X12C0_X01_0_3_1
 10
227.746204137802
 20
132.1212081909179
 30
0.0
  0
ATTRIB
  5
35C
330
35A
100
AcDbEntity
  8
B
  6
FIN
 62
     3
100
AcDbText
 10
229.1477245865444
 20
133.6428558324012
 30
0.0
 40
1.86201292174203
  1
27
 41
0.9200000000000001
  7
ARIAL
 11
229.1477245865444
 21
134.5738622932722
 31
0.0
100
AcDbAttribute
  2
$BORNE
 70
     0
 74
     2
  0
ATTRIB
  5
35D
330
35A
100
AcDbEntity
  8
B
  6
FIN
 62
     3
100
AcDbText
 10
223.4175384097647
 20
133.6428558324012
 30
0.0
 40
1.86201292174203
  1
X2
 41
0.9200000000000001
  7
ARIAL
 72
     2
 11
226.3446836890598
 21
134.5738622932722
 31
0.0
100
AcDbAttribute
  2
$NOMCOMP
 70
     0
 74
     2
  0
SEQEND
  5
35F
330
35A
100
AcDbEntity
  8
B
  6
FIN
 62
     0
  0
INSERT
  5
35E
330
1F
100
AcDbEntity
  8
B
  6
FIN
 62
     0
100
AcDbBlockReference
 66
     1
  2
X12C0_X01_0_3_1
 10
227.746204137802
 20
184.6780245304108
 30
0.0
  0
ATTRIB
  5
360
330
35E
100
AcDbEntity
  8
B
  6
FIN
 62
     3
100
AcDbText
 10
229.1477245865444
 20
186.199672171894
 30
0.0
 40
1.86201292174203
  1
26
 41
0.9200000000000001
  7
ARIAL
 11
229.1477245865444
 21
187.130678632765
 31
0.0
100
AcDbAttribute
  2
$BORNE
 70
     0
 74
     2
  0
ATTRIB
  5
361
330
35E
100
AcDbEntity
  8
B
  6
FIN
 62
     3
100
AcDbText
 10
223.4175384097647
 20
186.199672171894
 30
0.0
 40
1.86201292174203
  1
X2
 41
0.9200000000000001
  7
ARIAL
 72
     2
 11
226.3446836890598
 21
187.130678632765
 31
0.0
100
AcDbAttribute
  2
$NOMCOMP
 70
     0
 74
     2
  0
SEQEND
  5
363
330
35E
100
AcDbEntity
  8
B
  6
FIN
 62
     0
  0
INSERT
  5
362
330
1F
100
AcDbEntity
  8
B
  6
FIN
 62
     0
100
AcDbBlockReference
 66
     1
  2
H10C0N_H01_0_3_1
 10
234.7537796497344
 20
163.6552979946136
 30
0.0
  0
ATTRIB
  5
364
330
362
100
AcDbEntity
  8
B
  6
FIN
 62
     4
100
AcDbText
 10
231.9556111243571
 20
154.081197951436
 30
0.0
 40
1.629261306524276
  1
V
 41
0.9200000000000001
  7
ARIAL
 72
     2
 11
233.3522859327713
 21
154.8958286046981
 31
0.0
100
AcDbAttribute
  2
UNITE_UE
 70
     0
 74
     2
  0
ATTRIB
  5
365
330
362
100
AcDbEntity
  8
B
  6
FIN
 62
     3
100
AcDbText
 10
228.5091520720726
 20
160.8560084822611
 30
0.0
 40
2.094764536959783
  1
H8
 41
0.9200000000000001
  7
ARIAL
 72
     2
 11
231.9507387522499
 21
161.903390750741
 31
0.0
100
AcDbAttribute
  2
$NOMCOMP
 70
     0
 74
     2
  0
ATTRIB
  5
366
330
362
100
AcDbEntity
  8
B
  6
FIN
 62
     1
100
AcDbText
 10
235.629726588726
 20
163.4244287549067
 30
0.0
 40
1.512885498915399
  1
X1
 41
0.9200000000000001
  7
ARIAL
 11
235.629726588726
 21
164.1808715043644
 31
0.0
100
AcDbAttribute
  2
$PL:1
 70
     0
 74
     2
  0
ATTRIB
  5
367
330
362
100
AcDbEntity
  8
B
  6
FIN
 62
     1
100
AcDbText
 10
235.629726588726
 20
155.5409063039827
 30
0.0
 40
1.512885498915399
  1
X2
 41
0.9200000000000001
  7
ARIAL
 11
235.629726588726
 21
156.2973490534404
 31
0.0
100
AcDbAttribute
  2
$PL:2
 70
     0
 74
     2
  0
ATTRIB
  5
368
330
362
100
AcDbEntity
  8
B
  6
FIN
 62
     4
100
AcDbText
 10
229.8533170853541
 20
151.4533571344613
 30
0.0
 40
1.629261306524276
  1
V
 41
0.9200000000000001
  7
ARIAL
 72
     2
 11
231.2499918937683
 21
152.2679877877235
 31
0.0
100
AcDbAttribute
  2
TYPE
 70
     1
 74
     2
  0
ATTRIB
  5
369
330
362
100
AcDbEntity
  8
B
  6
FIN
 62
     1
100
AcDbText
 10
228.1066333901018
 20
154.081197951436
 30
0.0
 40
1.629261306524276
  1
230
 41
0.9200000000000001
  7
ARIAL
 72
     2
 11
231.6003653230091
 21
154.8958286046981
 31
0.0
100
AcDbAttribute
  2
UE
 70
     0
 74
     2
  0
SEQEND
  5
36B
330
362
100
AcDbEntity
  8
B
  6
FIN
 62
     0
  0
INSERT
  5
36A
330
1F
100
AcDbEntity
  8
B
  6
FIN
 62
     0
100
AcDbBlockReference
 66
     1
  2
X12C0_X01_0_3_1
 10
234.7537796497344
 20
184.6780245304108
 30
0.0
  0
ATTRIB
  5
36C
330
36A
100
AcDbEntity
  8
B
  6
FIN
 62
     3
100
AcDbText
 10
236.1553000984768
 20
186.199672171894
 30
0.0
 40
1.86201292174203
  1
28
 41
0.9200000000000001
  7
ARIAL
 11
236.1553000984768
 21
187.130678632765
 31
0.0
100
AcDbAttribute
  2
$BORNE
 70
     0
 74
     2
  0
ATTRIB
  5
36D
330
36A
100
AcDbEntity
  8
B
  6
FIN
 62
     3
100
AcDbText
 10
230.425113921697
 20
186.199672171894
 30
0.0
 40
1.86201292174203
  1
X2
 41
0.9200000000000001
  7
ARIAL
 72
     2
 11
233.3522592009921
 21
187.130678632765
 31
0.0
100
AcDbAttribute
  2
$NOMCOMP
 70
     1
 74
     2
  0
SEQEND
  5
36F
330
36A
100
AcDbEntity
  8
B
  6
FIN
 62
     0
  0
INSERT
  5
36E
330
1F
100
AcDbEntity
  8
B
  6
FIN
 62
     0
100
AcDbBlockReference
 66
     1
  2
X12C0_X01_0_3_1
 10
234.7537796497344
 20
132.1212081909179
 30
0.0
  0
ATTRIB
  5
370
330
36E
100
AcDbEntity
  8
B
  6
FIN
 62
     3
100
AcDbText
 10
236.1553000984768
 20
133.6428558324012
 30
0.0
 40
1.86201292174203
  1
29
 41
0.9200000000000001
  7
ARIAL
 11
236.1553000984768
 21
134.5738622932722
 31
0.0
100
AcDbAttribute
  2
$BORNE
 70
     0
 74
     2
  0
ATTRIB
  5
371
330
36E
100
AcDbEntity
  8
B
  6
FIN
 62
     3
100
AcDbText
 10
230.425113921697
 20
133.6428558324012
 30
0.0
 40
1.86201292174203
  1
X2
 41
0.9200000000000001
  7
ARIAL
 72
     2
 11
233.3522592009921
 21
134.5738622932722
 31
0.0
100
AcDbAttribute
  2
$NOMCOMP
 70
     1
 74
     2
  0
SEQEND
  5
381
330
36E
100
AcDbEntity
  8
B
  6
FIN
 62
     0
  0
INSERT
  5
380
330
1F
100
AcDbEntity
  8
B
  6
FIN
 62
     0
100
AcDbBlockReference
 66
     1
  2
012C0_001_0_3_1
 10
238.2575674057006
 20
104.0909061431884
 30
0.0
  0
ATTRIB
  5
382
330
380
100
AcDbEntity
  8
B
  6
FIN
 62
     3
100
AcDbText
 10
241.410981732426
 20
103.743024726776
 30
0.0
 40
1.396509691306523
  1
20
 41
0.9200000000000001
  7
ARIAL
 11
241.410981732426
 21
104.4412795724293
 31
0.0
100
AcDbAttribute
  2
$REPERE
 70
     1
 74
     2
  0
ATTRIB
  5
383
330
380
100
AcDbEntity
  8
B
  6
FIN
 62
     1
100
AcDbText
 10
242.1117285909076
 20
103.6266756509462
 30
0.0
 40
1.629261306524276
  1
5-1
 41
0.9200000000000001
  7
ARIAL
 11
242.1117285909076
 21
104.4413063042084
 31
0.0
100
AcDbAttribute
  2
$REFTEAB00
 70
     0
 74
     2
  0
SEQEND
  5
385
330
380
100
AcDbEntity
  8
B
  6
FIN
 62
     0
  0
INSERT
  5
384
330
1F
100
AcDbEntity
  8
B
  6
FIN
 62
     0
100
AcDbBlockReference
 66
     1
  2
H10C0N_H01_0_3_1
 10
255.7765061855315
 20
174.1666612625121
 30
0.0
  0
ATTRIB
  5
386
330
384
100
AcDbEntity
  8
B
  6
FIN
 62
     4
100
AcDbText
 10
253.6790845186358
 20
164.5925612193345
 30
0.0
 40
1.629261306524276
  1
V
 41
0.9200000000000001
  7
ARIAL
 72
     2
 11
255.07575932705
 21
165.4071918725966
 31
0.0
100
AcDbAttribute
  2
UNITE_UE
 70
     0
 74
     2
  0
ATTRIB
  5
387
330
384
100
AcDbEntity
  8
B
  6
FIN
 62
     3
100
AcDbText
 10
249.5319053396489
 20
172.0681453404204
 30
0.0
 40
2.094764536959783
  1
H9
 41
0.9200000000000001
  7
ARIAL
 72
     2
 11
252.9734920198261
 21
173.1155276089002
 31
0.0
100
AcDbAttribute
  2
$NOMCOMP
 70
     0
 74
     2
  0
ATTRIB
  5
388
330
384
100
AcDbEntity
  8
B
  6
FIN
 62
     1
100
AcDbText
 10
256.6524531245232
 20
173.9357920228052
 30
0.0
 40
1.512885498915399
  1
X1
 41
0.9200000000000001
  7
ARIAL
 11
256.6524531245232
 21
174.6922347722629
 31
0.0
100
AcDbAttribute
  2
$PL:1
 70
     0
 74
     2
  0
ATTRIB
  5
389
330
384
100
AcDbEntity
  8
B
  6
FIN
 62
     1
100
AcDbText
 10
256.6524531245232
 20
166.0522695718812
 30
0.0
 40
1.512885498915399
  1
X2
 41
0.9200000000000001
  7
ARIAL
 11
256.6524531245232
 21
166.8087123213389
 31
0.0
100
AcDbAttribute
  2
$PL:2
 70
     0
 74
     2
  0
ATTRIB
  5
38A
330
384
100
AcDbEntity
  8
B
  6
FIN
 62
     4
100
AcDbText
 10
250.8760436211512
 20
161.9647204023599
 30
0.0
 40
1.629261306524276
  1
V
 41
0.9200000000000001
  7
ARIAL
 72
     2
 11
252.2727184295654
 21
162.7793510556221
 31
0.0
100
AcDbAttribute
  2
TYPE
 70
     1
 74
     2
  0
ATTRIB
  5
38B
330
384
100
AcDbEntity
  8
B
  6
FIN
 62
     1
100
AcDbText
 10
249.8301335161596
 20
164.5925612193345
 30
0.0
 40
1.629261306524276
  1
230
 41
0.9200000000000001
  7
ARIAL
 72
     2
 11
253.3238654490669
 21
165.4071918725966
 31
0.0
100
AcDbAttribute
  2
UE
 70
     0
 74
     2
  0
SEQEND
  5
38D
330
384
100
AcDbEntity
  8
B
  6
FIN
 62
     0
  0
INSERT
  5
38C
330
1F
100
AcDbEntity
  8
B
  6
FIN
 62
     0
100
AcDbBlockReference
 66
     1
  2
X12C0_X01_0_3_1
 10
255.7765061855315
 20
132.1212081909179
 30
0.0
  0
ATTRIB
  5
38E
330
38C
100
AcDbEntity
  8
B
  6
FIN
 62
     3
100
AcDbText
 10
257.1780266342739
 20
133.6428558324012
 30
0.0
 40
1.86201292174203
  1
30
 41
0.9200000000000001
  7
ARIAL
 11
257.1780266342739
 21
134.5738622932722
 31
0.0
100
AcDbAttribute
  2
$BORNE
 70
     0
 74
     2
  0
ATTRIB
  5
38F
330
38C
100
AcDbEntity
  8
B
  6
FIN
 62
     3
100
AcDbText
 10
251.4478404574941
 20
133.6428558324012
 30
0.0
 40
1.86201292174203
  1
X2
 41
0.9200000000000001
  7
ARIAL
 72
     2
 11
254.3749857367893
 21
134.5738622932722
 31
0.0
100
AcDbAttribute
  2
$NOMCOMP
 70
     0
 74
     2
  0
SEQEND
  5
391
330
38C
100
AcDbEntity
  8
B
  6
FIN
 62
     0
  0
INSERT
  5
390
330
1F
100
AcDbEntity
  8
B
  6
FIN
 62
     0
100
AcDbBlockReference
 66
     1
  2
H10C0N_H01_0_3_1
 10
262.7840816974639
 20
163.6552979946136
 30
0.0
  0
ATTRIB
  5
392
330
390
100
AcDbEntity
  8
B
  6
FIN
 62
     4
100
AcDbText
 10
269.7965028497245
 20
158.2857325658838
 30
0.0
 40
1.629261306524276
  1
V
 41
0.9200000000000001
  7
ARIAL
 72
     2
 11
271.1931776581387
 21
159.1003632191459
 31
0.0
100
AcDbAttribute
  2
UNITE_UE
 70
     0
 74
     2
  0
ATTRIB
  5
393
330
390
100
AcDbEntity
  8
B
  6
FIN
 62
     3
100
AcDbText
 10
266.9549974191321
 20
161.5567687066322
 30
0.0
 40
2.094764536959783
  1
H10
 41
0.9200000000000001
  7
ARIAL
 72
     2
 11
271.8938977848411
 21
162.6041509751121
 31
0.0
100
AcDbAttribute
  2
$NOMCOMP
 70
     0
 74
     2
  0
ATTRIB
  5
394
330
390
100
AcDbEntity
  8
B
  6
FIN
 62
     1
100
AcDbText
 10
263.6600286364554
 20
163.4244287549067
 30
0.0
 40
1.512885498915399
  1
X1
 41
0.9200000000000001
  7
ARIAL
 11
263.6600286364554
 21
164.1808715043644
 31
0.0
100
AcDbAttribute
  2
$PL:1
 70
     0
 74
     2
  0
ATTRIB
  5
395
330
390
100
AcDbEntity
  8
B
  6
FIN
 62
     1
100
AcDbText
 10
263.6600286364554
 20
155.5409063039827
 30
0.0
 40
1.512885498915399
  1
X2
 41
0.9200000000000001
  7
ARIAL
 11
263.6600286364554
 21
156.2973490534404
 31
0.0
100
AcDbAttribute
  2
$PL:2
 70
     0
 74
     2
  0
ATTRIB
  5
396
330
390
100
AcDbEntity
  8
B
  6
FIN
 62
     4
100
AcDbText
 10
257.8836191330836
 20
151.4533571344613
 30
0.0
 40
1.629261306524276
  1
V
 41
0.9200000000000001
  7
ARIAL
 72
     2
 11
259.2802939414978
 21
152.2679877877235
 31
0.0
100
AcDbAttribute
  2
TYPE
 70
     1
 74
     2
  0
ATTRIB
  5
397
330
390
100
AcDbEntity
  8
B
  6
FIN
 62
     1
100
AcDbText
 10
265.9475518472484
 20
158.2857459317733
 30
0.0
 40
1.629261306524276
  1
230
 41
0.9200000000000001
  7
ARIAL
 72
     2
 11
269.4412837801556
 21
159.1003765850354
 31
0.0
100
AcDbAttribute
  2
UE
 70
     0
 74
     2
  0
SEQEND
  5
399
330
390
100
AcDbEntity
  8
B
  6
FIN
 62
     0
  0
INSERT
  5
398
330
1F
100
AcDbEntity
  8
B
  6
FIN
 62
     0
100
AcDbBlockReference
 66
     1
  2
X12C0_X01_0_3_1
 10
262.7840816974639
 20
132.1212081909179
 30
0.0
  0
ATTRIB
  5
39A
330
398
100
AcDbEntity
  8
B
  6
FIN
 62
     3
100
AcDbText
 10
264.1856021462063
 20
133.6428558324012
 30
0.0
 40
1.86201292174203
  1
31
 41
0.9200000000000001
  7
ARIAL
 11
264.1856021462063
 21
134.5738622932722
 31
0.0
100
AcDbAttribute
  2
$BORNE
 70
     0
 74
     2
  0
ATTRIB
  5
39B
330
398
100
AcDbEntity
  8
B
  6
FIN
 62
     3
100
AcDbText
 10
258.4554159694265
 20
133.6428558324012
 30
0.0
 40
1.86201292174203
  1
X2
 41
0.9200000000000001
  7
ARIAL
 72
     2
 11
261.3825612487216
 21
134.5738622932722
 31
0.0
100
AcDbAttribute
  2
$NOMCOMP
 70
     1
 74
     2
  0
SEQEND
  5
39D
330
398
100
AcDbEntity
  8
B
  6
FIN
 62
     0
  0
INSERT
  5
39C
330
1F
100
AcDbEntity
  8
B
  6
FIN
 62
     0
100
AcDbBlockReference
 66
     1
  2
012C0_001_0_3_1
 10
276.7992327213286
 20
125.1136326789856
 30
0.0
  0
ATTRIB
  5
39E
330
39C
100
AcDbEntity
  8
B
  6
FIN
 62
     3
100
AcDbText
 10
279.952647048054
 20
124.7657512625731
 30
0.0
 40
1.396509691306523
  1
19
 41
0.9200000000000001
  7
ARIAL
 11
279.952647048054
 21
125.4640061082264
 31
0.0
100
AcDbAttribute
  2
$REPERE
 70
     1
 74
     2
  0
ATTRIB
  5
39F
330
39C
100
AcDbEntity
  8
B
  6
FIN
 62
     1
100
AcDbText
 10
280.6533939065356
 20
124.6494021867433
 30
0.0
 40
1.629261306524276
  1
5-3
 41
0.9200000000000001
  7
ARIAL
 11
280.6533939065356
 21
125.4640328400054
 31
0.0
100
AcDbAttribute
  2
$REFTEAB00
 70
     0
 74
     2
  0
SEQEND
  5
3AD
330
39C
100
AcDbEntity
  8
B
  6
FIN
 62
     0
  0
INSERT
  5
3AC
330
1F
100
AcDbEntity
  8
B
  6
FIN
 62
     0
100
AcDbBlockReference
 66
     1
  2
002C0_000_0_3_1
 10
280.3030204772949
 20
44.52651429176331
 30
0.0
  0
ATTRIB
  5
3AE
330
3AC
100
AcDbEntity
  8
B
  6
FIN
 62
     1
100
AcDbText
 10
277.8538116510406
 20
45.81415595793365
 30
0.0
 40
1.629261306524276
  1
-
 41
0.9200000000000001
  7
ARIAL
 72
     2
 11
278.5511265993118
 21
46.62878661119578
 31
0.0
100
AcDbAttribute
  2
$NUM_EQUI
 70
     0
 74
     2
  0
ATTRIB
  5
3AF
330
3AC
100
AcDbEntity
  8
B
  6
FIN
 62
     3
100
AcDbText
 10
282.6485488597559
 20
44.24512133835918
 30
0.0
 40
1.280133883697645
  1
8
 41
0.9200000000000001
  7
ARIAL
 72
     4
 11
283.1060613747795
 21
44.87689273321269
 31
0.0
100
AcDbAttribute
  2
$REPERE
 70
     1
 74
     2
  0
ATTRIB
  5
3B0
330
3AC
100
AcDbEntity
  8
B
  6
FIN
 62
     1
100
AcDbText
 10
282.2674646157238
 20
44.24514305792973
 30
0.0
 40
1.280133883697645
  1
5-1
 41
0.9200000000000001
  7
ARIAL
 72
     4
 11
283.4564348040203
 21
44.87691445278324
 31
0.0
100
AcDbAttribute
  2
$REFTEAB00
 70
     0
 74
     2
  0
SEQEND
  5
3B2
330
3AC
100
AcDbEntity
  8
B
  6
FIN
 62
     0
  0
INSERT
  5
3B1
330
1F
100
AcDbEntity
  8
B
  6
FIN
 62
     0
100
AcDbBlockReference
 66
     1
  2
002C0_000_0_3_1
 10
280.3030204772949
 20
48.03030204772949
 30
0.0
  0
ATTRIB
  5
3B3
330
3B1
100
AcDbEntity
  8
B
  6
FIN
 62
     1
100
AcDbText
 10
277.3282692999974
 20
49.31794538463602
 30
0.0
 40
1.629261306524276
  1
+
 41
0.9200000000000001
  7
ARIAL
 72
     2
 11
278.5511265993118
 21
50.13257603789816
 31
0.0
100
AcDbAttribute
  2
$NUM_EQUI
 70
     0
 74
     2
  0
ATTRIB
  5
3B4
330
3B1
100
AcDbEntity
  8
B
  6
FIN
 62
     3
100
AcDbText
 10
282.6485488597559
 20
47.74891076506156
 30
0.0
 40
1.280133883697645
  1
7
 41
0.9200000000000001
  7
ARIAL
 72
     4
 11
283.1060613747795
 21
48.38068215991507
 31
0.0
100
AcDbAttribute
  2
$REPERE
 70
     1
 74
     2
  0
ATTRIB
  5
3B5
330
3B1
100
AcDbEntity
  8
B
  6
FIN
 62
     1
100
AcDbText
 10
282.2674646157238
 20
47.74893081389591
 30
0.0
 40
1.280133883697645
  1
5-1
 41
0.9200000000000001
  7
ARIAL
 72
     4
 11
283.4564348040203
 21
48.38070220874943
 31
0.0
100
AcDbAttribute
  2
$REFTEAB00
 70
     0
 74
     2
  0
SEQEND
  5
3CE
330
3B1
100
AcDbEntity
  8
B
  6
FIN
 62
     0
  0
TEXT
  5
3B6
330
1F
100
AcDbEntity
  8
B
  6
FIN
 62
     7
100
AcDbText
 10
36.08897111560509
 20
33.13920157876891
 30
0.0
 40
1.629261306524276
  1
CHAUFFAGE
 41
1.149999999999999
  7
ARIAL
100
AcDbText
  0
TEXT
  5
3B7
330
1F
100
AcDbEntity
  8
B
  6
FIN
 62
     7
100
AcDbText
 10
66.39693435646723
 20
38.39488404808628
 30
0.0
 40
1.629261306524276
  1
LAMPE HALL
 41
1.149999999999999
  7
ARIAL
100
AcDbText
  0
TEXT
  5
3B8
330
1F
100
AcDbEntity
  8
B
  6
FIN
 62
     7
100
AcDbText
 10
95.30316329435391
 20
32.96400818120371
 30
0.0
 40
1.629261306524276
  1
SONNERIE
 41
1.149999999999999
  7
ARIAL
100
AcDbText
  0
TEXT
  5
3B9
330
1F
100
AcDbEntity
  8
B
  6
FIN
 62
     7
100
AcDbText
 10
117.20191696448
 20
38.39488571882247
 30
0.0
 40
1.629261306524276
  1
LAMPES COULOIR
 41
1.149999999999999
  7
ARIAL
100
AcDbText
  0
TEXT
  5
3BA
330
1F
100
AcDbEntity
  8
B
  6
FIN
 62
     7
100
AcDbText
 10
150.4878605484901
 20
32.96401152267611
 30
0.0
 40
1.629261306524276
  1
LAMPE SAS
 41
1.149999999999999
  7
ARIAL
100
AcDbText
  0
TEXT
  5
3BB
330
1F
100
AcDbEntity
  8
B
  6
FIN
 62
     7
100
AcDbText
 10
206.898891536748
 20
33.1392032495051
 30
0.0
 40
1.629261306524276
  1
LAMPES LIT
 41
1.149999999999999
  7
ARIAL
100
AcDbText
  0
TEXT
  5
3BC
330
1F
100
AcDbEntity
  8
B
  6
FIN
 62
     7
100
AcDbText
 10
181.1459499496359
 20
38.39489073103107
 30
0.0
 40
1.629261306524276
  1
RESERVE
 41
1.149999999999999
  7
ARIAL
100
AcDbText
  0
TEXT
  5
3BD
330
1F
100
AcDbEntity
  8
B
  6
FIN
 62
     7
100
AcDbText
 10
225.8181478352599
 20
38.74527418468904
 30
0.0
 40
1.629261306524276
  1
LAMPES COULOIR CHAMBRE
 41
1.149999999999999
  7
ARIAL
100
AcDbText
  0
TEXT
  5
3BE
330
1F
100
AcDbEntity
  8
B
  6
FIN
 62
     7
100
AcDbText
 10
65.17046028050481
 20
171.0132603016764
 30
0.0
 40
1.396509691306523
  1
CHAUFFAGE
 41
1.149999999999999
  7
ARIAL
100
AcDbText
  0
TEXT
  5
3BF
330
1F
100
AcDbEntity
  8
B
  6
FIN
 62
     7
100
AcDbText
 10
65.17046028050481
 20
168.2102327700814
 30
0.0
 40
1.396509691306523
  1
SOUFFLANT
 41
1.149999999999999
  7
ARIAL
100
AcDbText
  0
TEXT
  5
3C0
330
1F
100
AcDbEntity
  8
B
  6
FIN
 62
     7
100
AcDbText
 10
264.8863490046879
 20
184.6780245304108
 30
0.0
 40
1.86201292174203
  1
W12
 41
1.149999999999999
  7
ARIAL
100
AcDbText
  0
TEXT
  5
3C1
330
1F
100
AcDbEntity
  8
B
  6
FIN
 62
     7
100
AcDbText
 10
236.5053527463679
 20
179.1511489970453
 30
0.0
 40
1.86201292174203
  1
W11
 41
1.149999999999999
  7
ARIAL
100
AcDbText
  0
TEXT
  5
3C2
330
1F
100
AcDbEntity
  8
B
  6
FIN
 62
     7
100
AcDbText
 10
221.0884139559694
 20
178.9759622824248
 30
0.0
 40
1.86201292174203
  1
W10
 41
1.149999999999999
  7
ARIAL
100
AcDbText
  0
TEXT
  5
3C3
330
1F
100
AcDbEntity
  8
B
  6
FIN
 62
     7
100
AcDbText
 10
177.6417211193138
 20
184.7571238648979
 30
0.0
 40
1.86201292174203
  1
W9
 41
1.149999999999999
  7
ARIAL
100
AcDbText
  0
TEXT
  5
3C4
330
1F
100
AcDbEntity
  8
B
  6
FIN
 62
     7
100
AcDbText
 10
152.414459969069
 20
184.7571238648979
 30
0.0
 40
1.86201292174203
  1
W8
 41
1.149999999999999
  7
ARIAL
100
AcDbText
  0
TEXT
  5
3C5
330
1F
100
AcDbEntity
  8
B
  6
FIN
 62
     7
100
AcDbText
 10
93.55082165907015
 20
184.7571238648979
 30
0.0
 40
1.86201292174203
  1
W7
 41
1.149999999999999
  7
ARIAL
100
AcDbText
  0
TEXT
  5
3C6
330
1F
100
AcDbEntity
  8
B
  6
FIN
 62
     7
100
AcDbText
 10
66.22127315276703
 20
184.0563636405267
 30
0.0
 40
1.86201292174203
  1
W6
 41
1.149999999999999
  7
ARIAL
100
AcDbText
  0
TEXT
  5
3C7
330
1F
100
AcDbEntity
  8
B
  6
FIN
 62
     7
100
AcDbText
 10
266.2878694534301
 20
141.2310510100742
 30
0.0
 40
1.86201292174203
  1
W12
 41
1.149999999999999
  7
ARIAL
100
AcDbText
  0
TEXT
  5
3C8
330
1F
100
AcDbEntity
  8
B
  6
FIN
 62
     7
100
AcDbText
 10
237.9068731951101
 20
141.3101503445614
 30
0.0
 40
1.86201292174203
  1
W11
 41
1.149999999999999
  7
ARIAL
100
AcDbText
  0
TEXT
  5
3C9
330
1F
100
AcDbEntity
  8
B
  6
FIN
 62
     7
100
AcDbText
 10
220.9739217458955
 20
141.1201809560744
 30
0.0
 40
1.86201292174203
  1
W10
 41
1.149999999999999
  7
ARIAL
100
AcDbText
  0
TEXT
  5
3CA
330
1F
100
AcDbEntity
  8
B
  6
FIN
 62
     7
100
AcDbText
 10
179.7440017924273
 20
141.3101503445614
 30
0.0
 40
1.86201292174203
  1
W9
 41
1.149999999999999
  7
ARIAL
100
AcDbText
  0
TEXT
  5
3CB
330
1F
100
AcDbEntity
  8
B
  6
FIN
 62
     7
100
AcDbText
 10
154.5167406421824
 20
141.3101503445614
 30
0.0
 40
1.86201292174203
  1
W8
 41
1.149999999999999
  7
ARIAL
100
AcDbText
  0
TEXT
  5
3CC
330
1F
100
AcDbEntity
  8
B
  6
FIN
 62
     7
100
AcDbText
 10
95.6531023321836
 20
141.3101503445614
 30
0.0
 40
1.86201292174203
  1
W7
 41
1.149999999999999
  7
ARIAL
100
AcDbText
  0
TEXT
  5
3CD
330
1F
100
AcDbEntity
  8
B
  6
FIN
 62
     7
100
AcDbText
 10
65.52051961134066
 20
140.6094703155277
 30
0.0
 40
1.86201292174203
  1
W6
 41
1.149999999999999
  7
ARIAL
100
AcDbText
  0
LWPOLYLINE
  5
3FA
330
1F
100
AcDbEntity
  8
0
 62
     6
370
    50
100
AcDbPolyline
 90
        4
 70
     1
 43
0.0
 10
173.5795253321394
 20
100.7647060819571
 10
197.2414344894607
 20
100.7647060819571
 10
197.2414344894607
 20
72.52941166519116
 10
173.5795253321394
 20
72.52941166519116
  0
LWPOLYLINE
  5
80A
330
1F
100
AcDbEntity
  8
0
 62
     6
370
    50
100
AcDbPolyline
 90
        4
 70
     1
 43
0.0
 10
210.0
 20
199.5
 10
245.0
 20
199.5
 10
245.0
 20
150.5
 10
210.0
 20
150.5
  0
ENDSEC
  0
SECTION
  2
OBJECTS
  0
DICTIONARY
  5
C
330
0
100
AcDbDictionary
281
     1
  3
ACAD_GROUP
350
D
  3
ACAD_IMAGE_DICT
350
79
  3
ACAD_IMAGE_VARS
350
7B
  3
ACAD_LAYOUT
350
1A
  3
ACAD_MLINESTYLE
350
17
  3
ACAD_PLOTSETTINGS
350
19
  3
ACAD_PLOTSTYLENAME
350
3F5
  3
ACDBHEADERROUNDTRIPXREC
350
85E
  3
AcDbVariableDictionary
350
80C
  0
IMAGEDEF_REACTOR
  5
7D
330
7C
100
AcDbRasterImageDefReactor
 90
        2
330
7C
  0
DICTIONARY
  5
D
102
{ACAD_REACTORS
330
C
102
}
330
C
100
AcDbDictionary
281
     1
  0
DICTIONARY
  5
79
102
{ACAD_REACTORS
330
C
102
}
330
C
100
AcDbDictionary
281
     1
  3
PETIT_LOGO_ERM_BLEU_ET_ORA
350
7A
  0
RASTERVARIABLES
  5
7B
102
{ACAD_REACTORS
330
C
102
}
330
C
100
AcDbRasterVariables
 90
        0
 70
     1
 71
     1
 72
     0
  0
DICTIONARY
  5
1A
102
{ACAD_REACTORS
330
C
102
}
330
C
100
AcDbDictionary
281
     1
  3
Model
350
3F7
  3
Présentation1
350
3F8
  0
DICTIONARY
  5
17
102
{ACAD_REACTORS
330
C
102
}
330
C
100
AcDbDictionary
281
     1
  3
STANDARD
350
18
  0
DICTIONARY
  5
19
102
{ACAD_REACTORS
330
C
102
}
330
C
100
AcDbDictionary
281
     1
  0
ACDBDICTIONARYWDFLT
  5
3F5
102
{ACAD_REACTORS
330
C
102
}
330
C
100
AcDbDictionary
281
     1
  3
Normal
350
3F6
100
AcDbDictionaryWithDefault
340
3F6
  0
DICTIONARY
  5
85E
102
{ACAD_REACTORS
330
C
102
}
330
C
100
AcDbDictionary
281
     1
  3
CEPSNTYPE
350
868
  3
FINGERPRINTGUID
350
869
  3
HYPERLINKBASE
350
861
  3
INSUNITS
350
867
  3
LAYOUTDICT
350
863
  3
LWETCUNION
350
866
  3
PLOTSETDICT
350
864
  3
PLOTSTYLNAMDICT
350
865
  3
PSVPSCALE
350
86B
  3
PUCSBASE
350
86E
  3
PUCSORGBACK
350
874
  3
PUCSORGBOTTOM
350
870
  3
PUCSORGFRONT
350
873
  3
PUCSORGLEFT
350
871
  3
PUCSORGRIGHT
350
872
  3
PUCSORGTOP
350
86F
  3
PUCSORTHOREF
350
86C
  3
PUCSORTHOVIEW
350
86D
  3
STYLESHEET
350
862
  3
TSTACKALIGN
350
85F
  3
TSTACKSIZE
350
860
  3
UCSBASE
350
877
  3
UCSORGBACK
350
87D
  3
UCSORGBOTTOM
350
879
  3
UCSORGFRONT
350
87C
  3
UCSORGLEFT
350
87A
  3
UCSORGRIGHT
350
87B
  3
UCSORGTOP
350
878
  3
UCSORTHOREF
350
875
  3
UCSORTHOVIEW
350
876
  3
VERSIONGUID
350
86A
  0
DICTIONARY
  5
80C
102
{ACAD_REACTORS
330
C
102
}
330
C
100
AcDbDictionary
281
     1
  3
DIMASSOC
350
80D
  0
IMAGEDEF
  5
7A
102
{ACAD_REACTORS
330
79
330
7D
102
}
330
79
100
AcDbRasterImageDef
 90
        0
  1
PETIT LOGO ERM BLEU ET ORANGE.JPG
 10
367.0
 20
137.0
 11
0.002724795640327
 21
0.002724795640327
280
     1
281
     1
  0
LAYOUT
  5
3F7
102
{ACAD_REACTORS
330
1A
102
}
330
1A
100
AcDbPlotSettings
  1

  2
none_device
  4
none_user_media
  6
VIEW
 40
0.0
 41
0.0
 42
0.0
 43
0.0
 44
0.0
 45
0.0
 46
0.0
 47
0.0
 48
-3.5
 49
-3.0
140
302.0
141
215.0
142
1.0
143
1.0
 70
 11936
 72
     0
 73
     1
 74
     4
  7

 75
     0
147
1.0
148
88.89999999999998
149
76.19999999999999
100
AcDbLayout
  1
Model
 70
     1
 71
     0
 10
0.0
 20
0.0
 11
12.0
 21
9.0
 12
0.0
 22
0.0
 32
0.0
 14
0.0
 24
0.0
 34
0.0
 15
0.0
 25
0.0
 35
0.0
146
0.0
 13
0.0
 23
0.0
 33
0.0
 16
1.0
 26
0.0
 36
0.0
 17
0.0
 27
1.0
 37
0.0
 76
     0
330
1F
  0
LAYOUT
  5
3F8
102
{ACAD_REACTORS
330
1A
102
}
330
1A
100
AcDbPlotSettings
  1

  2
\\PATRICK\HP LaserJet 6L
  4

  6

 40
0.0
 41
0.0
 42
0.0
 43
0.0
 44
0.0
 45
0.0
 46
0.0
 47
0.0
 48
0.0
 49
0.0
140
0.0
141
0.0
142
1.0
143
1.0
 70
   688
 72
     0
 73
     0
 74
     5
  7

 75
    16
147
1.0
148
0.0
149
0.0
100
AcDbLayout
  1
Présentation1
 70
     1
 71
     1
 10
0.0
 20
0.0
 11
297.0
 21
210.0
 12
0.0
 22
0.0
 32
0.0
 14
0.0
 24
0.0
 34
0.0
 15
297.0
 25
210.0
 35
0.0
146
0.0
 13
0.0
 23
0.0
 33
0.0
 16
1.0
 26
0.0
 36
0.0
 17
0.0
 27
1.0
 37
0.0
 76
     0
330
1B
  0
MLINESTYLE
  5
18
102
{ACAD_REACTORS
330
17
102
}
330
17
100
AcDbMlineStyle
  2
STANDARD
 70
     0
  3

 62
   256
 51
90.0
 52
90.0
 71
     2
 49
0.5
 62
   256
  6
BYLAYER
 49
-0.5
 62
   256
  6
BYLAYER
  0
ACDBPLACEHOLDER
  5
3F6
102
{ACAD_REACTORS
330
3F5
102
}
330
3F5
  0
XRECORD
  5
868
102
{ACAD_REACTORS
330
85E
102
}
330
85E
100
AcDbXrecord
280
     1
 90
        0
  0
XRECORD
  5
869
102
{ACAD_REACTORS
330
85E
102
}
330
85E
100
AcDbXrecord
280
     1
  1
{775C8957-96B5-41F4-BAA4-18DC4AF14556}
  0
XRECORD
  5
861
102
{ACAD_REACTORS
330
85E
102
}
330
85E
100
AcDbXrecord
280
     1
  1

  0
XRECORD
  5
867
102
{ACAD_REACTORS
330
85E
102
}
330
85E
100
AcDbXrecord
280
     1
 90
        0
  0
XRECORD
  5
863
102
{ACAD_REACTORS
330
85E
102
}
330
85E
100
AcDbXrecord
280
     1
340
1A
  0
XRECORD
  5
866
102
{ACAD_REACTORS
330
85E
102
}
330
85E
100
AcDbXrecord
280
     1
 90
    10781
  0
XRECORD
  5
864
102
{ACAD_REACTORS
330
85E
102
}
330
85E
100
AcDbXrecord
280
     1
340
19
  0
XRECORD
  5
865
102
{ACAD_REACTORS
330
85E
102
}
330
85E
100
AcDbXrecord
280
     1
340
3F5
  0
XRECORD
  5
86B
102
{ACAD_REACTORS
330
85E
102
}
330
85E
100
AcDbXrecord
280
     1
 40
0.0
  0
XRECORD
  5
86E
102
{ACAD_REACTORS
330
85E
102
}
330
85E
100
AcDbXrecord
280
     1
340
0
  0
XRECORD
  5
874
102
{ACAD_REACTORS
330
85E
102
}
330
85E
100
AcDbXrecord
280
     1
 10
0.0
 20
0.0
 30
0.0
  0
XRECORD
  5
870
102
{ACAD_REACTORS
330
85E
102
}
330
85E
100
AcDbXrecord
280
     1
 10
0.0
 20
0.0
 30
0.0
  0
XRECORD
  5
873
102
{ACAD_REACTORS
330
85E
102
}
330
85E
100
AcDbXrecord
280
     1
 10
0.0
 20
0.0
 30
0.0
  0
XRECORD
  5
871
102
{ACAD_REACTORS
330
85E
102
}
330
85E
100
AcDbXrecord
280
     1
 10
0.0
 20
0.0
 30
0.0
  0
XRECORD
  5
872
102
{ACAD_REACTORS
330
85E
102
}
330
85E
100
AcDbXrecord
280
     1
 10
0.0
 20
0.0
 30
0.0
  0
XRECORD
  5
86F
102
{ACAD_REACTORS
330
85E
102
}
330
85E
100
AcDbXrecord
280
     1
 10
0.0
 20
0.0
 30
0.0
  0
XRECORD
  5
86C
102
{ACAD_REACTORS
330
85E
102
}
330
85E
100
AcDbXrecord
280
     1
340
0
  0
XRECORD
  5
86D
102
{ACAD_REACTORS
330
85E
102
}
330
85E
100
AcDbXrecord
280
     1
 70
     0
  0
XRECORD
  5
862
102
{ACAD_REACTORS
330
85E
102
}
330
85E
100
AcDbXrecord
280
     1
  1

  0
XRECORD
  5
85F
102
{ACAD_REACTORS
330
85E
102
}
330
85E
100
AcDbXrecord
280
     1
 90
        1
  0
XRECORD
  5
860
102
{ACAD_REACTORS
330
85E
102
}
330
85E
100
AcDbXrecord
280
     1
 90
       70
  0
XRECORD
  5
877
102
{ACAD_REACTORS
330
85E
102
}
330
85E
100
AcDbXrecord
280
     1
340
0
  0
XRECORD
  5
87D
102
{ACAD_REACTORS
330
85E
102
}
330
85E
100
AcDbXrecord
280
     1
 10
0.0
 20
0.0
 30
0.0
  0
XRECORD
  5
879
102
{ACAD_REACTORS
330
85E
102
}
330
85E
100
AcDbXrecord
280
     1
 10
0.0
 20
0.0
 30
0.0
  0
XRECORD
  5
87C
102
{ACAD_REACTORS
330
85E
102
}
330
85E
100
AcDbXrecord
280
     1
 10
0.0
 20
0.0
 30
0.0
  0
XRECORD
  5
87A
102
{ACAD_REACTORS
330
85E
102
}
330
85E
100
AcDbXrecord
280
     1
 10
0.0
 20
0.0
 30
0.0
  0
XRECORD
  5
87B
102
{ACAD_REACTORS
330
85E
102
}
330
85E
100
AcDbXrecord
280
     1
 10
0.0
 20
0.0
 30
0.0
  0
XRECORD
  5
878
102
{ACAD_REACTORS
330
85E
102
}
330
85E
100
AcDbXrecord
280
     1
 10
0.0
 20
0.0
 30
0.0
  0
XRECORD
  5
875
102
{ACAD_REACTORS
330
85E
102
}
330
85E
100
AcDbXrecord
280
     1
340
0
  0
XRECORD
  5
876
102
{ACAD_REACTORS
330
85E
102
}
330
85E
100
AcDbXrecord
280
     1
 70
     0
  0
XRECORD
  5
86A
102
{ACAD_REACTORS
330
85E
102
}
330
85E
100
AcDbXrecord
280
     1
  1
{45E848FE-A4A1-4036-A881-E28921BCBBD2}
  0
DICTIONARYVAR
  5
80D
102
{ACAD_REACTORS
330
80C
102
}
330
80C
100
DictionaryVariables
280
     0
  1
1
  0
ENDSEC
  0
EOF
