  0
SECTION
  2
HEADER
  9
$ACADVER
  1
AC1015
  9
$ACADMAINTVER
 70
     6
  9
$DWGCODEPAGE
  3
ANSI_1252
  9
$INSBASE
 10
0.0
 20
0.0
 30
0.0
  9
$EXTMIN
 10
0.0
 20
0.0
 30
0.0
  9
$EXTMAX
 10
297.0000610351563
 20
210.0
 30
0.0
  9
$LIMMIN
 10
0.0
 20
0.0
  9
$LIMMAX
 10
297.0
 20
210.0
  9
$ORTHOMODE
 70
     0
  9
$REGENMODE
 70
     1
  9
$FILLMODE
 70
     1
  9
$QTEXTMODE
 70
     0
  9
$MIRRTEXT
 70
     1
  9
$LTSCALE
 40
15.0
  9
$ATTMODE
 70
     1
  9
$TEXTSIZE
 40
0.2
  9
$TRACEWID
 40
0.05
  9
$TEXTSTYLE
  7
STANDARD
  9
$CLAYER
  8
0
  9
$CELTYPE
  6
BYLAYER
  9
$CECOLOR
 62
   256
  9
$CELTSCALE
 40
1.0
  9
$DISPSILH
 70
     0
  9
$DIMSCALE
 40
1.0
  9
$DIMASZ
 40
0.18
  9
$DIMEXO
 40
0.0625
  9
$DIMDLI
 40
0.38
  9
$DIMRND
 40
0.0
  9
$DIMDLE
 40
0.0
  9
$DIMEXE
 40
0.18
  9
$DIMTP
 40
0.0
  9
$DIMTM
 40
0.0
  9
$DIMTXT
 40
0.18
  9
$DIMCEN
 40
0.09
  9
$DIMTSZ
 40
0.0
  9
$DIMTOL
 70
     0
  9
$DIMLIM
 70
     0
  9
$DIMTIH
 70
     1
  9
$DIMTOH
 70
     1
  9
$DIMSE1
 70
     0
  9
$DIMSE2
 70
     0
  9
$DIMTAD
 70
     0
  9
$DIMZIN
 70
     0
  9
$DIMBLK
  1

  9
$DIMASO
 70
     1
  9
$DIMSHO
 70
     1
  9
$DIMPOST
  1

  9
$DIMAPOST
  1

  9
$DIMALT
 70
     0
  9
$DIMALTD
 70
     2
  9
$DIMALTF
 40
25.4
  9
$DIMLFAC
 40
1.0
  9
$DIMTOFL
 70
     0
  9
$DIMTVP
 40
0.0
  9
$DIMTIX
 70
     0
  9
$DIMSOXD
 70
     0
  9
$DIMSAH
 70
     0
  9
$DIMBLK1
  1

  9
$DIMBLK2
  1

  9
$DIMSTYLE
  2
STANDARD
  9
$DIMCLRD
 70
     0
  9
$DIMCLRE
 70
     0
  9
$DIMCLRT
 70
     0
  9
$DIMTFAC
 40
1.0
  9
$DIMGAP
 40
0.09
  9
$DIMJUST
 70
     0
  9
$DIMSD1
 70
     0
  9
$DIMSD2
 70
     0
  9
$DIMTOLJ
 70
     1
  9
$DIMTZIN
 70
     0
  9
$DIMALTZ
 70
     0
  9
$DIMALTTZ
 70
     0
  9
$DIMUPT
 70
     0
  9
$DIMDEC
 70
     4
  9
$DIMTDEC
 70
     4
  9
$DIMALTU
 70
     2
  9
$DIMALTTD
 70
     2
  9
$DIMTXSTY
  7
STANDARD
  9
$DIMAUNIT
 70
     0
  9
$DIMADEC
 70
     0
  9
$DIMALTRND
 40
0.0
  9
$DIMAZIN
 70
     0
  9
$DIMDSEP
 70
    46
  9
$DIMATFIT
 70
     3
  9
$DIMFRAC
 70
     0
  9
$DIMLDRBLK
  1

  9
$DIMLUNIT
 70
     2
  9
$DIMLWD
 70
    -2
  9
$DIMLWE
 70
    -2
  9
$DIMTMOVE
 70
     0
  9
$LUNITS
 70
     2
  9
$LUPREC
 70
     4
  9
$SKETCHINC
 40
0.1
  9
$FILLETRAD
 40
0.5
  9
$AUNITS
 70
     0
  9
$AUPREC
 70
     0
  9
$MENU
  1
.
  9
$ELEVATION
 40
0.0
  9
$PELEVATION
 40
0.0
  9
$THICKNESS
 40
0.0
  9
$LIMCHECK
 70
     0
  9
$CHAMFERA
 40
0.5
  9
$CHAMFERB
 40
0.5
  9
$CHAMFERC
 40
1.0
  9
$CHAMFERD
 40
0.0
  9
$SKPOLY
 70
     0
  9
$TDCREATE
 40
2454848.442794363
  9
$TDUCREATE
 40
2454848.359461029
  9
$TDUPDATE
 40
2455010.430081921
  9
$TDUUPDATE
 40
2455010.346748588
  9
$TDINDWG
 40
0.0050248380
  9
$TDUSRTIMER
 40
0.0050248380
  9
$USRTIMER
 70
     1
  9
$ANGBASE
 50
0.0
  9
$ANGDIR
 70
     0
  9
$PDMODE
 70
     0
  9
$PDSIZE
 40
0.0
  9
$PLINEWID
 40
0.0
  9
$SPLFRAME
 70
     0
  9
$SPLINETYPE
 70
     6
  9
$SPLINESEGS
 70
     8
  9
$HANDSEED
  5
450
  9
$SURFTAB1
 70
     6
  9
$SURFTAB2
 70
     6
  9
$SURFTYPE
 70
     6
  9
$SURFU
 70
     6
  9
$SURFV
 70
     6
  9
$UCSBASE
  2

  9
$UCSNAME
  2

  9
$UCSORG
 10
0.0
 20
0.0
 30
0.0
  9
$UCSXDIR
 10
1.0
 20
0.0
 30
0.0
  9
$UCSYDIR
 10
0.0
 20
1.0
 30
0.0
  9
$UCSORTHOREF
  2

  9
$UCSORTHOVIEW
 70
     0
  9
$UCSORGTOP
 10
0.0
 20
0.0
 30
0.0
  9
$UCSORGBOTTOM
 10
0.0
 20
0.0
 30
0.0
  9
$UCSORGLEFT
 10
0.0
 20
0.0
 30
0.0
  9
$UCSORGRIGHT
 10
0.0
 20
0.0
 30
0.0
  9
$UCSORGFRONT
 10
0.0
 20
0.0
 30
0.0
  9
$UCSORGBACK
 10
0.0
 20
0.0
 30
0.0
  9
$PUCSBASE
  2

  9
$PUCSNAME
  2

  9
$PUCSORG
 10
0.0
 20
0.0
 30
0.0
  9
$PUCSXDIR
 10
1.0
 20
0.0
 30
0.0
  9
$PUCSYDIR
 10
0.0
 20
1.0
 30
0.0
  9
$PUCSORTHOREF
  2

  9
$PUCSORTHOVIEW
 70
     0
  9
$PUCSORGTOP
 10
0.0
 20
0.0
 30
0.0
  9
$PUCSORGBOTTOM
 10
0.0
 20
0.0
 30
0.0
  9
$PUCSORGLEFT
 10
0.0
 20
0.0
 30
0.0
  9
$PUCSORGRIGHT
 10
0.0
 20
0.0
 30
0.0
  9
$PUCSORGFRONT
 10
0.0
 20
0.0
 30
0.0
  9
$PUCSORGBACK
 10
0.0
 20
0.0
 30
0.0
  9
$USERI1
 70
     0
  9
$USERI2
 70
     0
  9
$USERI3
 70
     0
  9
$USERI4
 70
     0
  9
$USERI5
 70
     0
  9
$USERR1
 40
0.0
  9
$USERR2
 40
0.0
  9
$USERR3
 40
0.0
  9
$USERR4
 40
0.0
  9
$USERR5
 40
0.0
  9
$WORLDVIEW
 70
     1
  9
$SHADEDGE
 70
     3
  9
$SHADEDIF
 70
    70
  9
$TILEMODE
 70
     1
  9
$MAXACTVP
 70
    64
  9
$PINSBASE
 10
0.0
 20
0.0
 30
0.0
  9
$PLIMCHECK
 70
     0
  9
$PEXTMIN
 10
0.0
 20
0.0
 30
0.0
  9
$PEXTMAX
 10
297.0
 20
210.0
 30
0.0
  9
$PLIMMIN
 10
0.0
 20
0.0
  9
$PLIMMAX
 10
297.0
 20
210.0
  9
$UNITMODE
 70
     0
  9
$VISRETAIN
 70
     1
  9
$PLINEGEN
 70
     0
  9
$PSLTSCALE
 70
     1
  9
$TREEDEPTH
 70
  3020
  9
$CMLSTYLE
  2
STANDARD
  9
$CMLJUST
 70
     0
  9
$CMLSCALE
 40
1.0
  9
$PROXYGRAPHICS
 70
     1
  9
$MEASUREMENT
 70
     0
  9
$CELWEIGHT
370
    -1
  9
$ENDCAPS
280
     0
  9
$JOINSTYLE
280
     0
  9
$LWDISPLAY
290
     0
  9
$INSUNITS
 70
     0
  9
$HYPERLINKBASE
  1

  9
$STYLESHEET
  1

  9
$XEDIT
290
     1
  9
$CEPSNTYPE
380
     0
  9
$PSTYLEMODE
290
     1
  9
$FINGERPRINTGUID
  2
{DF0051A4-2E97-46F7-A6CD-E9757532D863}
  9
$VERSIONGUID
  2
{AEA344C0-FD90-4C55-ABE7-AC506981C946}
  9
$EXTNAMES
290
     1
  9
$PSVPSCALE
 40
0.0
  9
$OLESTARTUP
290
     0
  0
ENDSEC
  0
SECTION
  2
CLASSES
  0
CLASS
  1
ACDBDICTIONARYWDFLT
  2
AcDbDictionaryWithDefault
  3
AutoCAD 2000
 90
        0
280
     0
281
     0
  0
CLASS
  1
IMAGEDEF
  2
AcDbRasterImageDef
  3
ISM
 90
        0
280
     0
281
     0
  0
CLASS
  1
RASTERVARIABLES
  2
AcDbRasterVariables
  3
ISM
 90
        0
280
     0
281
     0
  0
CLASS
  1
IMAGE
  2
AcDbRasterImage
  3
ISM
 90
      127
280
     0
281
     1
  0
CLASS
  1
IMAGEDEF_REACTOR
  2
AcDbRasterImageDefReactor
  3
ISM
 90
        1
280
     0
281
     0
  0
CLASS
  1
XRECORD
  2
AcDbXrecord
  3
AutoCAD 2000
 90
    32768
280
     0
281
     0
  0
CLASS
  1
LWPOLYLINE
  2
AcDbPolyline
  3
AutoCAD 2000
 90
    32768
280
     0
281
     1
  0
CLASS
  1
HATCH
  2
AcDbHatch
  3
AutoCAD 2000
 90
    32768
280
     0
281
     1
  0
CLASS
  1
ACDBPLACEHOLDER
  2
AcDbPlaceHolder
  3
AutoCAD 2000
 90
        0
280
     0
281
     0
  0
CLASS
  1
LAYOUT
  2
AcDbLayout
  3
AutoCAD 2000
 90
        0
280
     0
281
     0
  0
CLASS
  1
DICTIONARYVAR
  2
AcDbDictionaryVar
  3
AutoCAD 2000
 90
        0
280
     0
281
     0
  0
ENDSEC
  0
SECTION
  2
TABLES
  0
TABLE
  2
VPORT
  5
8
330
0
100
AcDbSymbolTable
 70
     5
  0
VPORT
  5
42F
330
8
100
AcDbSymbolTableRecord
100
AcDbViewportTableRecord
  2
*Active
 70
     0
 10
0.0
 20
0.0
 11
1.0
 21
1.0
 12
75.87092387345285
 22
65.2226321564265
 13
0.0
 23
0.0
 14
0.5
 24
0.5
 15
0.5
 25
0.5
 16
0.0
 26
0.0
 36
1.0
 17
0.0
 27
0.0
 37
0.0
 40
156.5050359410286
 41
1.595959595959596
 42
50.0
 43
0.0
 44
0.0
 50
0.0
 51
0.0
 71
     0
 72
   100
 73
     1
 74
     3
 75
     0
 76
     0
 77
     0
 78
     0
281
     0
 65
     1
110
0.0
120
0.0
130
0.0
111
1.0
121
0.0
131
0.0
112
0.0
122
1.0
132
0.0
 79
     0
146
0.0
  0
ENDTAB
  0
TABLE
  2
LTYPE
  5
5
330
0
100
AcDbSymbolTable
 70
    41
  0
LTYPE
  5
14
330
5
100
AcDbSymbolTableRecord
100
AcDbLinetypeTableRecord
  2
BYBLOCK
 70
     0
  3

 72
    65
 73
     0
 40
0.0
  0
LTYPE
  5
15
330
5
100
AcDbSymbolTableRecord
100
AcDbLinetypeTableRecord
  2
BYLAYER
 70
     0
  3

 72
    65
 73
     0
 40
0.0
  0
LTYPE
  5
16
330
5
100
AcDbSymbolTableRecord
100
AcDbLinetypeTableRecord
  2
CONTINUOUS
 70
     0
  3
Solid line
 72
    65
 73
     0
 40
0.0
  0
LTYPE
  5
2A
330
5
100
AcDbSymbolTableRecord
100
AcDbLinetypeTableRecord
  2
FIN
 70
     0
  3
________________________________
 72
    65
 73
     0
 40
0.0
  0
LTYPE
  5
2B
330
5
100
AcDbSymbolTableRecord
100
AcDbLinetypeTableRecord
  2
MOYEN
 70
     0
  3
________________________________
 72
    65
 73
     0
 40
0.0
  0
LTYPE
  5
2C
330
5
100
AcDbSymbolTableRecord
100
AcDbLinetypeTableRecord
  2
EPAIS
 70
     0
  3
________________________________
 72
    65
 73
     0
 40
0.0
  0
LTYPE
  5
2D
330
5
100
AcDbSymbolTableRecord
100
AcDbLinetypeTableRecord
  2
TIRET
 70
     0
  3
____    ____    ____    ____    ^D
 72
    65
 73
     4
 40
1.0
 49
0.25
 74
     0
 49
-0.25
 74
     0
 49
0.25
 74
     0
 49
-0.25
 74
     0
  0
LTYPE
  5
2E
330
5
100
AcDbSymbolTableRecord
100
AcDbLinetypeTableRecord
  2
POINT
 70
     0
  3
_ _ _ _ _ _ _ _ _ _ _ _ _ _ _ _ ^H
 72
    65
 73
     8
 40
0.5
 49
0.0625
 74
     0
 49
-0.0625
 74
     0
 49
0.0625
 74
     0
 49
-0.0625
 74
     0
 49
0.0625
 74
     0
 49
-0.0625
 74
     0
 49
0.0625
 74
     0
 49
-0.0625
 74
     0
  0
LTYPE
  5
2F
330
5
100
AcDbSymbolTableRecord
100
AcDbLinetypeTableRecord
  2
AXES
 70
     0
  3
_______   _     _______   _     ^D
 72
    65
 73
     4
 40
1.0
 49
0.4375
 74
     0
 49
-0.1875
 74
     0
 49
0.0625
 74
     0
 49
-0.3125
 74
     0
  0
LTYPE
  5
30
330
5
100
AcDbSymbolTableRecord
100
AcDbLinetypeTableRecord
  2
AXESDBLE
 70
     0
  3
_____   _   _   _____   _   _   ^F
 72
    65
 73
     6
 40
1.0
 49
0.3125
 74
     0
 49
-0.1875
 74
     0
 49
0.0625
 74
     0
 49
-0.1875
 74
     0
 49
0.0625
 74
     0
 49
-0.1875
 74
     0
  0
LTYPE
  5
31
330
5
100
AcDbSymbolTableRecord
100
AcDbLinetypeTableRecord
  2
BLEU
 70
     0
  3
________________________________
 72
    65
 73
     0
 40
0.0
  0
LTYPE
  5
32
330
5
100
AcDbSymbolTableRecord
100
AcDbLinetypeTableRecord
  2
VERT
 70
     0
  3
________________________________
 72
    65
 73
     0
 40
0.0
  0
LTYPE
  5
33
330
5
100
AcDbSymbolTableRecord
100
AcDbLinetypeTableRecord
  2
CYAN
 70
     0
  3
________________________________
 72
    65
 73
     0
 40
0.0
  0
LTYPE
  5
34
330
5
100
AcDbSymbolTableRecord
100
AcDbLinetypeTableRecord
  2
ROUGE
 70
     0
  3
________________________________
 72
    65
 73
     0
 40
0.0
  0
LTYPE
  5
35
330
5
100
AcDbSymbolTableRecord
100
AcDbLinetypeTableRecord
  2
VIOLET
 70
     0
  3
________________________________
 72
    65
 73
     0
 40
0.0
  0
LTYPE
  5
36
330
5
100
AcDbSymbolTableRecord
100
AcDbLinetypeTableRecord
  2
JAUNE
 70
     0
  3
________________________________
 72
    65
 73
     0
 40
0.0
  0
LTYPE
  5
37
330
5
100
AcDbSymbolTableRecord
100
AcDbLinetypeTableRecord
  2
NOIR
 70
     0
  3
________________________________
 72
    65
 73
     0
 40
0.0
  0
LTYPE
  5
38
330
5
100
AcDbSymbolTableRecord
100
AcDbLinetypeTableRecord
  2
BLANC
 70
     0
  3
________________________________
 72
    65
 73
     0
 40
0.0
  0
LTYPE
  5
39
330
5
100
AcDbSymbolTableRecord
100
AcDbLinetypeTableRecord
  2
ORANGE
 70
     0
  3
________________________________
 72
    65
 73
     0
 40
0.0
  0
LTYPE
  5
3A
330
5
100
AcDbSymbolTableRecord
100
AcDbLinetypeTableRecord
  2
BRUN
 70
     0
  3
________________________________
 72
    65
 73
     0
 40
0.0
  0
LTYPE
  5
3B
330
5
100
AcDbSymbolTableRecord
100
AcDbLinetypeTableRecord
  2
GRIS
 70
     0
  3
________________________________
 72
    65
 73
     0
 40
0.0
  0
LTYPE
  5
3C
330
5
100
AcDbSymbolTableRecord
100
AcDbLinetypeTableRecord
  2
SYMBOL_C
 70
     0
  3
________________________________
 72
    65
 73
     0
 40
0.0
  0
LTYPE
  5
3D
330
5
100
AcDbSymbolTableRecord
100
AcDbLinetypeTableRecord
  2
SYMBOL_P
 70
     0
  3
________________________________
 72
    65
 73
     0
 40
0.0
  0
LTYPE
  5
3E
330
5
100
AcDbSymbolTableRecord
100
AcDbLinetypeTableRecord
  2
LINE
 70
     0
  3
________________________________
 72
    65
 73
     0
 40
0.0
  0
LTYPE
  5
3F
330
5
100
AcDbSymbolTableRecord
100
AcDbLinetypeTableRecord
  2
LINE_1
 70
     0
  3
________________________________
 72
    65
 73
     0
 40
0.0
  0
LTYPE
  5
40
330
5
100
AcDbSymbolTableRecord
100
AcDbLinetypeTableRecord
  2
LINE_2
 70
     0
  3
________________________________
 72
    65
 73
     0
 40
0.0
  0
LTYPE
  5
41
330
5
100
AcDbSymbolTableRecord
100
AcDbLinetypeTableRecord
  2
LINE_3
 70
     0
  3
________________________________
 72
    65
 73
     0
 40
0.0
  0
LTYPE
  5
42
330
5
100
AcDbSymbolTableRecord
100
AcDbLinetypeTableRecord
  2
LINE_4
 70
     0
  3
________________________________
 72
    65
 73
     0
 40
0.0
  0
LTYPE
  5
43
330
5
100
AcDbSymbolTableRecord
100
AcDbLinetypeTableRecord
  2
LINE_5
 70
     0
  3
________________________________
 72
    65
 73
     0
 40
0.0
  0
LTYPE
  5
44
330
5
100
AcDbSymbolTableRecord
100
AcDbLinetypeTableRecord
  2
LINE_6
 70
     0
  3
________________________________
 72
    65
 73
     0
 40
0.0
  0
LTYPE
  5
45
330
5
100
AcDbSymbolTableRecord
100
AcDbLinetypeTableRecord
  2
LINE_7
 70
     0
  3
________________________________
 72
    65
 73
     0
 40
0.0
  0
LTYPE
  5
46
330
5
100
AcDbSymbolTableRecord
100
AcDbLinetypeTableRecord
  2
LINE_8
 70
     0
  3
________________________________
 72
    65
 73
     0
 40
0.0
  0
LTYPE
  5
47
330
5
100
AcDbSymbolTableRecord
100
AcDbLinetypeTableRecord
  2
LINE_9
 70
     0
  3
________________________________
 72
    65
 73
     0
 40
0.0
  0
LTYPE
  5
48
330
5
100
AcDbSymbolTableRecord
100
AcDbLinetypeTableRecord
  2
LINE_10
 70
     0
  3
________________________________
 72
    65
 73
     0
 40
0.0
  0
LTYPE
  5
49
330
5
100
AcDbSymbolTableRecord
100
AcDbLinetypeTableRecord
  2
LINE_11
 70
     0
  3
________________________________
 72
    65
 73
     0
 40
0.0
  0
LTYPE
  5
4A
330
5
100
AcDbSymbolTableRecord
100
AcDbLinetypeTableRecord
  2
LINE_12
 70
     0
  3
________________________________
 72
    65
 73
     0
 40
0.0
  0
LTYPE
  5
4B
330
5
100
AcDbSymbolTableRecord
100
AcDbLinetypeTableRecord
  2
LINE_13
 70
     0
  3
________________________________
 72
    65
 73
     0
 40
0.0
  0
LTYPE
  5
4C
330
5
100
AcDbSymbolTableRecord
100
AcDbLinetypeTableRecord
  2
LINE_14
 70
     0
  3
________________________________
 72
    65
 73
     0
 40
0.0
  0
LTYPE
  5
4D
330
5
100
AcDbSymbolTableRecord
100
AcDbLinetypeTableRecord
  2
LINE_15
 70
     0
  3
________________________________
 72
    65
 73
     0
 40
0.0
  0
LTYPE
  5
4E
330
5
100
AcDbSymbolTableRecord
100
AcDbLinetypeTableRecord
  2
LINE_16
 70
     0
  3
________________________________
 72
    65
 73
     0
 40
0.0
  0
LTYPE
  5
4F
330
5
100
AcDbSymbolTableRecord
100
AcDbLinetypeTableRecord
  2
LINE_17
 70
     0
  3
________________________________
 72
    65
 73
     0
 40
0.0
  0
LTYPE
  5
50
330
5
100
AcDbSymbolTableRecord
100
AcDbLinetypeTableRecord
  2
LINE_18
 70
     0
  3
________________________________
 72
    65
 73
     0
 40
0.0
  0
LTYPE
  5
51
330
5
100
AcDbSymbolTableRecord
100
AcDbLinetypeTableRecord
  2
LINE_19
 70
     0
  3
________________________________
 72
    65
 73
     0
 40
0.0
  0
ENDTAB
  0
TABLE
  2
LAYER
  5
2
330
0
100
AcDbSymbolTable
 70
     4
  0
LAYER
  5
10
330
2
100
AcDbSymbolTableRecord
100
AcDbLayerTableRecord
  2
0
 70
     0
 62
     7
  6
CONTINUOUS
370
    -3
390
410
  0
LAYER
  5
53
330
2
100
AcDbSymbolTableRecord
100
AcDbLayerTableRecord
  2
DEFAULT
 70
     0
 62
     1
  6
CONTINUOUS
370
    -3
390
410
  0
LAYER
  5
5C
330
2
100
AcDbSymbolTableRecord
100
AcDbLayerTableRecord
  2
A
 70
     0
 62
     1
  6
CONTINUOUS
370
    -3
390
410
  0
LAYER
  5
136
330
2
100
AcDbSymbolTableRecord
100
AcDbLayerTableRecord
  2
B
 70
     0
 62
     1
  6
CONTINUOUS
370
    -3
390
410
  0
ENDTAB
  0
TABLE
  2
STYLE
  5
3
330
0
100
AcDbSymbolTable
 70
     2
  0
STYLE
  5
11
330
3
100
AcDbSymbolTableRecord
100
AcDbTextStyleTableRecord
  2
STANDARD
 70
     0
 40
0.0
 41
1.0
 50
0.0
 71
     0
 42
0.2
  3
txt
  4

  0
STYLE
  5
92
330
3
100
AcDbSymbolTableRecord
100
AcDbTextStyleTableRecord
  2
ARIAL
 70
     0
 40
2.657142857142857
 41
0.9200000000000001
 50
0.0
 71
     0
 42
0.5
  3
ARIAL.TTF
  4

1001
ACAD
1000
Arial
1071
       34
  0
ENDTAB
  0
TABLE
  2
VIEW
  5
6
330
0
100
AcDbSymbolTable
 70
     1
  0
VIEW
  5
52
330
6
100
AcDbSymbolTableRecord
100
AcDbViewTableRecord
  2
VIEW
 70
     0
 40
1.0
 10
0.0
 20
0.0
 41
1.0
 11
0.0
 21
0.0
 31
1.0
 12
0.0
 22
0.0
 32
0.0
 42
50.0
 43
0.0
 44
0.0
 50
0.0
 71
     0
281
     0
 72
     0
  0
ENDTAB
  0
TABLE
  2
UCS
  5
7
330
0
100
AcDbSymbolTable
 70
     0
  0
ENDTAB
  0
TABLE
  2
APPID
  5
9
330
0
100
AcDbSymbolTable
 70
     1
  0
APPID
  5
12
330
9
100
AcDbSymbolTableRecord
100
AcDbRegAppTableRecord
  2
ACAD
 70
     0
  0
ENDTAB
  0
TABLE
  2
DIMSTYLE
  5
A
330
0
100
AcDbSymbolTable
 70
     1
100
AcDbDimStyleTable
 71
     0
  0
DIMSTYLE
105
27
330
A
100
AcDbSymbolTableRecord
100
AcDbDimStyleTableRecord
  2
STANDARD
 70
     0
340
11
  0
ENDTAB
  0
TABLE
  2
BLOCK_RECORD
  5
1
330
0
100
AcDbSymbolTable
 70
    13
  0
BLOCK_RECORD
  5
1F
330
1
100
AcDbSymbolTableRecord
100
AcDbBlockTableRecord
  2
*MODEL_SPACE
340
411
  0
BLOCK_RECORD
  5
1B
330
1
100
AcDbSymbolTableRecord
100
AcDbBlockTableRecord
  2
*PAPER_SPACE
340
412
  0
BLOCK_RECORD
  5
54
330
1
100
AcDbSymbolTableRecord
100
AcDbBlockTableRecord
  2
14
340
0
102
{BLKREFS
331
CB
102
}
  0
BLOCK_RECORD
  5
13A
330
1
100
AcDbSymbolTableRecord
100
AcDbBlockTableRecord
  2
004C0_000_0_3_1
340
0
102
{BLKREFS
331
146
331
14A
102
}
  0
BLOCK_RECORD
  5
14F
330
1
100
AcDbSymbolTableRecord
100
AcDbBlockTableRecord
  2
006C0_001_0_3_1
340
0
102
{BLKREFS
331
15B
331
27B
102
}
  0
BLOCK_RECORD
  5
15F
330
1
100
AcDbSymbolTableRecord
100
AcDbBlockTableRecord
  2
_I446_KNX_0_3_1
340
0
102
{BLKREFS
331
26C
102
}
  0
BLOCK_RECORD
  5
27F
330
1
100
AcDbSymbolTableRecord
100
AcDbBlockTableRecord
  2
X12C0_X01_0_3_1
340
0
102
{BLKREFS
331
2C7
331
377
331
3A2
331
3A6
331
3AA
102
}
  0
BLOCK_RECORD
  5
2CB
330
1
100
AcDbSymbolTableRecord
100
AcDbBlockTableRecord
  2
H10C0N_H01_0_3_1
340
0
102
{BLKREFS
331
2DF
102
}
  0
BLOCK_RECORD
  5
2E7
330
1
100
AcDbSymbolTableRecord
100
AcDbBlockTableRecord
  2
_I452_KNX_0_3_1
340
0
102
{BLKREFS
331
35F
102
}
  0
BLOCK_RECORD
  5
37B
330
1
100
AcDbSymbolTableRecord
100
AcDbBlockTableRecord
  2
M04P4N_2_M01_0_3_1
340
0
102
{BLKREFS
331
39A
102
}
  0
BLOCK_RECORD
  5
3AE
330
1
100
AcDbSymbolTableRecord
100
AcDbBlockTableRecord
  2
T12C0N_T01_0_3_1
340
0
102
{BLKREFS
331
3B5
102
}
  0
BLOCK_RECORD
  5
3B7
330
1
100
AcDbSymbolTableRecord
100
AcDbBlockTableRecord
  2
012C0_001_0_3_1
340
0
102
{BLKREFS
331
3C5
331
3C9
102
}
  0
BLOCK_RECORD
  5
3CE
330
1
100
AcDbSymbolTableRecord
100
AcDbBlockTableRecord
  2
002C0_000_0_3_1
340
0
102
{BLKREFS
331
3DA
331
3DF
102
}
  0
ENDTAB
  0
ENDSEC
  0
SECTION
  2
BLOCKS
  0
BLOCK
  5
20
330
1F
100
AcDbEntity
  8
0
100
AcDbBlockBegin
  2
*MODEL_SPACE
 70
     0
 10
0.0
 20
0.0
 30
0.0
  3
*MODEL_SPACE
  1

  0
ENDBLK
  5
21
330
1F
100
AcDbEntity
  8
0
100
AcDbBlockEnd
  0
BLOCK
  5
1C
330
1B
100
AcDbEntity
 67
     1
  8
0
100
AcDbBlockBegin
  2
*PAPER_SPACE
 70
     0
 10
0.0
 20
0.0
 30
0.0
  3
*PAPER_SPACE
  1

  0
ENDBLK
  5
1D
330
1B
100
AcDbEntity
 67
     1
  8
0
100
AcDbBlockEnd
  0
BLOCK
  5
C9
330
54
100
AcDbEntity
  8
0
100
AcDbBlockBegin
  2
14
 70
     2
 10
0.0
 20
0.0
 30
0.0
  3
14
  1

  0
LWPOLYLINE
  5
55
330
54
100
AcDbEntity
  8
A
  6
EPAIS
 62
     9
100
AcDbPolyline
 90
        5
 70
     0
 43
0.0
 10
0.0
 20
0.0
 10
0.0
 20
20.0
 10
297.0
 20
20.0
 10
297.0
 20
0.0
 10
0.0
 20
0.0
  0
LWPOLYLINE
  5
5D
330
54
100
AcDbEntity
  8
A
  6
EPAIS
 62
     9
100
AcDbPolyline
 90
        5
 70
     0
 43
0.0
 10
140.0
 20
0.0
 10
140.0
 20
20.0
 10
203.0
 20
20.0
 10
203.0
 20
0.0
 10
140.0
 20
0.0
  0
LWPOLYLINE
  5
64
330
54
100
AcDbEntity
  8
A
  6
EPAIS
 62
     9
100
AcDbPolyline
 90
        5
 70
     0
 43
0.0
 10
202.9814453125
 20
20.0
 10
202.9814453125
 20
0.0
 10
239.9814453124999
 20
0.0
 10
239.9814453124999
 20
20.0
 10
202.9814453125
 20
20.0
  0
LWPOLYLINE
  5
6B
330
54
100
AcDbEntity
  8
A
  6
EPAIS
 62
     9
100
AcDbPolyline
 90
        5
 70
     0
 43
0.0
 10
140.0
 20
20.0
 10
140.0
 20
13.5
 10
240.0
 20
13.5
 10
240.0
 20
20.0
 10
140.0
 20
20.0
  0
LINE
  5
72
330
54
100
AcDbEntity
  8
A
  6
MOYEN
 62
     4
100
AcDbLine
 10
140.0
 20
10.0
 30
0.0
 11
240.0
 21
10.0
 31
0.0
  0
LINE
  5
73
330
54
100
AcDbEntity
  8
A
  6
MOYEN
 62
     4
100
AcDbLine
 10
140.0
 20
7.5
 30
0.0
 11
240.0
 21
7.5
 31
0.0
  0
LINE
  5
74
330
54
100
AcDbEntity
  8
A
  6
MOYEN
 62
     4
100
AcDbLine
 10
240.0
 20
5.0
 30
0.0
 11
140.0
 21
5.0
 31
0.0
  0
LINE
  5
75
330
54
100
AcDbEntity
  8
A
  6
MOYEN
 62
     4
100
AcDbLine
 10
140.0
 20
2.5
 30
0.0
 11
240.0
 21
2.5
 31
0.0
  0
LINE
  5
76
330
54
100
AcDbEntity
  8
A
  6
EPAIS
 62
     9
100
AcDbLine
 10
240.0
 20
5.0
 30
0.0
 11
297.0
 21
5.0
 31
0.0
  0
LINE
  5
77
330
54
100
AcDbEntity
  8
A
  6
MOYEN
 62
     4
100
AcDbLine
 10
171.5
 20
20.0
 30
0.0
 11
171.5
 21
13.5
 31
0.0
  0
LINE
  5
78
330
54
100
AcDbEntity
  8
A
  6
MOYEN
 62
     4
100
AcDbLine
 10
221.4999999999999
 20
13.5
 30
0.0
 11
221.4999999999999
 21
0.0
 31
0.0
  0
IMAGE
  5
7C
330
54
100
AcDbEntity
  8
A
  6
FIN
 62
     0
 92
      140
310
8C000000010000008400000006000000050000000000000078756F400000805613281A4000000000000000000000000078756F4000000000CA6E32400000000000000000000004DFFDE1714000000000CA6E32400000000000000000000004DFFDE171400000805613281A4000000000000000000000000078756F40000080
310
5613281A400000000000000000
100
AcDbRasterImage
 90
        0
 10
251.6708984375
 20
6.53913626819849
 30
0.0
 11
0.0938789695501328
 21
0.0
 31
0.0
 12
0.0
 22
0.0868148431181908
 32
0.0
 13
367.0
 23
137.0
340
7A
 70
     3
280
     0
281
    50
282
    50
283
     0
360
7D
 71
     1
 91
        2
 14
-0.5
 24
-0.5
 14
366.5
 24
136.4999999999999
  0
ATTDEF
  5
7E
330
54
100
AcDbEntity
  8
A
  6
FIN
 62
     7
100
AcDbText
 10
282.8171997070313
 20
1.607490219388689
 30
0.0
 40
1.992857142857142
  1

 41
0.9200000000000001
 72
     2
 11
282.8171997070313
 21
2.60391879081726
 31
0.0
100
AcDbAttributeDefinition
  3

  2
$FOLNUM
 70
     0
 74
     2
  0
ATTDEF
  5
7F
330
54
100
AcDbEntity
  8
A
  6
FIN
 62
     7
100
AcDbText
 10
285.0936889648437
 20
1.664779342923845
 30
0.0
 40
1.992857142857142
  1

 41
0.9200000000000001
 11
285.0936889648437
 21
2.661207914352416
 31
0.0
100
AcDbAttributeDefinition
  3

  2
$NBFOLGR
 70
     0
 74
     2
  0
ATTDEF
  5
80
330
54
100
AcDbEntity
  8
A
  6
FIN
 62
     7
100
AcDbText
 10
221.9862518310546
 20
16.8684196472168
 30
0.0
 40
1.992857142857142
  1

 41
0.9200000000000001
 72
     4
 11
221.9862518310546
 21
16.8684196472168
 31
0.0
100
AcDbAttributeDefinition
  3

  2
$DOSSIER(N-1)
 70
     0
 74
     2
  0
ATTDEF
  5
81
330
54
100
AcDbEntity
  8
A
  6
FIN
 62
     7
100
AcDbText
 10
156.6351318359375
 20
15.96512309483119
 30
0.0
 40
1.992857142857142
  1

 41
0.9200000000000001
 11
156.6351318359375
 21
16.96155166625977
 31
0.0
100
AcDbAttributeDefinition
  3

  2
$FOLREALI
 70
     0
 74
     2
  0
ATTDEF
  5
82
330
54
100
AcDbEntity
  8
A
  6
FIN
 62
     7
100
AcDbText
 10
179.9422607421875
 20
15.98519030979701
 30
0.0
 40
1.992857142857142
  1

 41
0.9200000000000001
 11
179.9422607421875
 21
16.98161888122559
 31
0.0
100
AcDbAttributeDefinition
  3

  2
$REV_DATE:X
 70
     0
 74
     2
  0
ATTDEF
  5
83
330
54
100
AcDbEntity
  8
A
  6
FIN
 62
     7
100
AcDbText
 10
3.636573791503906
 20
12.95742307390485
 30
0.0
 40
3.321428571428572
  1

 41
0.9200000000000001
 11
3.636573791503906
 21
14.61813735961914
 31
0.0
100
AcDbAttributeDefinition
  3

  2
$DOSSIER(N-3)
 70
     0
 74
     2
  0
ATTDEF
  5
84
330
54
100
AcDbEntity
  8
A
  6
FIN
 62
     7
100
AcDbText
 10
3.618404388427733
 20
4.105261666434151
 30
0.0
 40
3.321428571428572
  1

 41
0.9200000000000001
 11
3.618404388427733
 21
5.765975952148437
 31
0.0
100
AcDbAttributeDefinition
  3

  2
$FOLTITRE
 70
     0
 74
     2
  0
ATTDEF
  5
85
330
54
100
AcDbEntity
  8
A
  6
FIN
 62
     7
100
AcDbText
 10
141.2790985107421
 20
8.208684866768972
 30
0.0
 40
1.328571428571428
  1

 41
0.9200000000000001
 11
141.2790985107421
 21
8.872970581054687
 31
0.0
100
AcDbAttributeDefinition
  3

  2
$REV_LIB:X
 70
     0
 74
     2
  0
ATTDEF
  5
86
330
54
100
AcDbEntity
  8
A
  6
FIN
 62
     7
100
AcDbText
 10
206.1279602050781
 20
8.217974608285086
 30
0.0
 40
1.328571428571428
  1

 41
0.9200000000000001
 11
206.1279602050781
 21
8.8822603225708
 31
0.0
100
AcDbAttributeDefinition
  3

  2
$REV_DATE:X
 70
     0
 74
     2
  0
ATTDEF
  5
87
330
54
100
AcDbEntity
  8
A
  6
FIN
 62
     7
100
AcDbText
 10
224.9319915771484
 20
8.217974608285086
 30
0.0
 40
1.328571428571428
  1

 41
0.9200000000000001
 11
224.9319915771484
 21
8.8822603225708
 31
0.0
100
AcDbAttributeDefinition
  3

  2
$REV_NOM:X
 70
     0
 74
     2
  0
ATTDEF
  5
88
330
54
100
AcDbEntity
  8
A
  6
FIN
 62
     7
100
AcDbText
 10
141.2750091552734
 20
5.786786978585379
 30
0.0
 40
1.328571428571428
  1

 41
0.9200000000000001
 11
141.2750091552734
 21
6.451072692871093
 31
0.0
100
AcDbAttributeDefinition
  3

  2
$REV_LIB:X+1
 70
     0
 74
     2
  0
ATTDEF
  5
89
330
54
100
AcDbEntity
  8
A
  6
FIN
 62
     7
100
AcDbText
 10
206.1238708496094
 20
5.796075766427176
 30
0.0
 40
1.328571428571428
  1

 41
0.9200000000000001
 11
206.1238708496094
 21
6.460361480712891
 31
0.0
100
AcDbAttributeDefinition
  3

  2
$REV_DATE:X+1
 70
     0
 74
     2
  0
ATTDEF
  5
8A
330
54
100
AcDbEntity
  8
A
  6
FIN
 62
     7
100
AcDbText
 10
224.9279022216796
 20
5.796075766427176
 30
0.0
 40
1.328571428571428
  1

 41
0.9200000000000001
 11
224.9279022216796
 21
6.460361480712891
 31
0.0
100
AcDbAttributeDefinition
  3

  2
$REV_NOM:X+1
 70
     0
 74
     2
  0
ATTDEF
  5
8B
330
54
100
AcDbEntity
  8
A
  6
FIN
 62
     7
100
AcDbText
 10
141.2959594726563
 20
3.234682743889944
 30
0.0
 40
1.328571428571428
  1

 41
0.9200000000000001
 11
141.2959594726563
 21
3.898968458175658
 31
0.0
100
AcDbAttributeDefinition
  3

  2
$REV_LIB:X+2
 70
     0
 74
     2
  0
ATTDEF
  5
8C
330
54
100
AcDbEntity
  8
A
  6
FIN
 62
     7
100
AcDbText
 10
206.1448211669921
 20
3.243971531731741
 30
0.0
 40
1.328571428571428
  1

 41
0.9200000000000001
 11
206.1448211669921
 21
3.908257246017456
 31
0.0
100
AcDbAttributeDefinition
  3

  2
$REV_DATE:X+2
 70
     0
 74
     2
  0
ATTDEF
  5
8D
330
54
100
AcDbEntity
  8
A
  6
FIN
 62
     7
100
AcDbText
 10
224.9488525390625
 20
3.243971531731741
 30
0.0
 40
1.328571428571428
  1

 41
0.9200000000000001
 11
224.9488525390625
 21
3.908257246017456
 31
0.0
100
AcDbAttributeDefinition
  3

  2
$REV_NOM:X+2
 70
     0
 74
     2
  0
ATTDEF
  5
8E
330
54
100
AcDbEntity
  8
A
  6
FIN
 62
     7
100
AcDbText
 10
141.2657165527344
 20
0.6825732639857697
 30
0.0
 40
1.328571428571428
  1

 41
0.9200000000000001
 11
141.2657165527344
 21
1.346858978271484
 31
0.0
100
AcDbAttributeDefinition
  3

  2
$REV_LIB:X+3
 70
     0
 74
     2
  0
ATTDEF
  5
8F
330
54
100
AcDbEntity
  8
A
  6
FIN
 62
     7
100
AcDbText
 10
206.1145782470703
 20
0.6918620518275666
 30
0.0
 40
1.328571428571428
  1

 41
0.9200000000000001
 11
206.1145782470703
 21
1.356147766113281
 31
0.0
100
AcDbAttributeDefinition
  3

  2
$REV_DATE:X+3
 70
     0
 74
     2
  0
ATTDEF
  5
90
330
54
100
AcDbEntity
  8
A
  6
FIN
 62
     7
100
AcDbText
 10
224.9186096191405
 20
0.6918620518275666
 30
0.0
 40
1.328571428571428
  1

 41
0.9200000000000001
 11
224.9186096191405
 21
1.356147766113281
 31
0.0
100
AcDbAttributeDefinition
  3

  2
$REV_NOM:X+3
 70
     0
 74
     2
  0
LINE
  5
91
330
54
100
AcDbEntity
  8
A
  6
FIN
 62
     7
100
AcDbLine
 10
0.0
 20
205.0
 30
0.0
 11
297.0
 21
205.0
 31
0.0
  0
TEXT
  5
93
330
54
100
AcDbEntity
  8
A
  6
FIN
 62
     7
100
AcDbText
 10
7.425001144409179
 20
205.5
 30
0.0
 40
2.657142857142857
  1
1
 41
0.9200000000000001
  7
ARIAL
100
AcDbText
  0
LINE
  5
94
330
54
100
AcDbEntity
  8
A
  6
FIN
 62
     7
100
AcDbLine
 10
14.85000133514403
 20
205.0
 30
0.0
 11
14.85000133514403
 21
210.0
 31
0.0
  0
TEXT
  5
95
330
54
100
AcDbEntity
  8
A
  6
FIN
 62
     7
100
AcDbText
 10
22.27500152587891
 20
205.5
 30
0.0
 40
2.657142857142857
  1
2
 41
0.9200000000000001
  7
ARIAL
100
AcDbText
  0
LINE
  5
96
330
54
100
AcDbEntity
  8
A
  6
FIN
 62
     7
100
AcDbLine
 10
29.70000267028808
 20
205.0
 30
0.0
 11
29.70000267028808
 21
210.0
 31
0.0
  0
TEXT
  5
97
330
54
100
AcDbEntity
  8
A
  6
FIN
 62
     7
100
AcDbText
 10
37.12500381469727
 20
205.5
 30
0.0
 40
2.657142857142857
  1
3
 41
0.9200000000000001
  7
ARIAL
100
AcDbText
  0
LINE
  5
98
330
54
100
AcDbEntity
  8
A
  6
FIN
 62
     7
100
AcDbLine
 10
44.55000305175781
 20
205.0
 30
0.0
 11
44.55000305175781
 21
210.0
 31
0.0
  0
TEXT
  5
99
330
54
100
AcDbEntity
  8
A
  6
FIN
 62
     7
100
AcDbText
 10
51.97500610351563
 20
205.5
 30
0.0
 40
2.657142857142857
  1
4
 41
0.9200000000000001
  7
ARIAL
100
AcDbText
  0
LINE
  5
9A
330
54
100
AcDbEntity
  8
A
  6
FIN
 62
     7
100
AcDbLine
 10
59.40000534057617
 20
205.0
 30
0.0
 11
59.40000534057617
 21
210.0
 31
0.0
  0
TEXT
  5
9B
330
54
100
AcDbEntity
  8
A
  6
FIN
 62
     7
100
AcDbText
 10
66.82500457763672
 20
205.5
 30
0.0
 40
2.657142857142857
  1
5
 41
0.9200000000000001
  7
ARIAL
100
AcDbText
  0
LINE
  5
9C
330
54
100
AcDbEntity
  8
A
  6
FIN
 62
     7
100
AcDbLine
 10
74.25000762939453
 20
205.0
 30
0.0
 11
74.25000762939453
 21
210.0
 31
0.0
  0
TEXT
  5
9D
330
54
100
AcDbEntity
  8
A
  6
FIN
 62
     7
100
AcDbText
 10
81.67500305175781
 20
205.5
 30
0.0
 40
2.657142857142857
  1
6
 41
0.9200000000000001
  7
ARIAL
100
AcDbText
  0
LINE
  5
9E
330
54
100
AcDbEntity
  8
A
  6
FIN
 62
     7
100
AcDbLine
 10
89.10000610351563
 20
205.0
 30
0.0
 11
89.10000610351563
 21
210.0
 31
0.0
  0
TEXT
  5
9F
330
54
100
AcDbEntity
  8
A
  6
FIN
 62
     7
100
AcDbText
 10
96.52500152587892
 20
205.5
 30
0.0
 40
2.657142857142857
  1
7
 41
0.9200000000000001
  7
ARIAL
100
AcDbText
  0
LINE
  5
A0
330
54
100
AcDbEntity
  8
A
  6
FIN
 62
     7
100
AcDbLine
 10
103.9500045776367
 20
205.0
 30
0.0
 11
103.9500045776367
 21
210.0
 31
0.0
  0
TEXT
  5
A1
330
54
100
AcDbEntity
  8
A
  6
FIN
 62
     7
100
AcDbText
 10
111.375
 20
205.5
 30
0.0
 40
2.657142857142857
  1
8
 41
0.9200000000000001
  7
ARIAL
100
AcDbText
  0
LINE
  5
A2
330
54
100
AcDbEntity
  8
A
  6
FIN
 62
     7
100
AcDbLine
 10
118.8000030517577
 20
205.0
 30
0.0
 11
118.8000030517577
 21
210.0
 31
0.0
  0
TEXT
  5
A3
330
54
100
AcDbEntity
  8
A
  6
FIN
 62
     7
100
AcDbText
 10
126.2250061035155
 20
205.5
 30
0.0
 40
2.657142857142857
  1
9
 41
0.9200000000000001
  7
ARIAL
100
AcDbText
  0
LINE
  5
A4
330
54
100
AcDbEntity
  8
A
  6
FIN
 62
     7
100
AcDbLine
 10
133.6500091552734
 20
205.0
 30
0.0
 11
133.6500091552734
 21
210.0
 31
0.0
  0
TEXT
  5
A5
330
54
100
AcDbEntity
  8
A
  6
FIN
 62
     7
100
AcDbText
 10
141.0750122070313
 20
205.5
 30
0.0
 40
2.657142857142857
  1
10
 41
0.9200000000000001
  7
ARIAL
100
AcDbText
  0
LINE
  5
A6
330
54
100
AcDbEntity
  8
A
  6
FIN
 62
     7
100
AcDbLine
 10
148.500015258789
 20
205.0
 30
0.0
 11
148.500015258789
 21
210.0
 31
0.0
  0
TEXT
  5
A7
330
54
100
AcDbEntity
  8
A
  6
FIN
 62
     7
100
AcDbText
 10
155.9250183105469
 20
205.5
 30
0.0
 40
2.657142857142857
  1
11
 41
0.9200000000000001
  7
ARIAL
100
AcDbText
  0
LINE
  5
A8
330
54
100
AcDbEntity
  8
A
  6
FIN
 62
     7
100
AcDbLine
 10
163.3500213623046
 20
205.0
 30
0.0
 11
163.3500213623046
 21
210.0
 31
0.0
  0
TEXT
  5
A9
330
54
100
AcDbEntity
  8
A
  6
FIN
 62
     7
100
AcDbText
 10
170.7750244140624
 20
205.5
 30
0.0
 40
2.657142857142857
  1
12
 41
0.9200000000000001
  7
ARIAL
100
AcDbText
  0
LINE
  5
AA
330
54
100
AcDbEntity
  8
A
  6
FIN
 62
     7
100
AcDbLine
 10
178.2000274658203
 20
205.0
 30
0.0
 11
178.2000274658203
 21
210.0
 31
0.0
  0
TEXT
  5
AB
330
54
100
AcDbEntity
  8
A
  6
FIN
 62
     7
100
AcDbText
 10
185.6250305175781
 20
205.5
 30
0.0
 40
2.657142857142857
  1
13
 41
0.9200000000000001
  7
ARIAL
100
AcDbText
  0
LINE
  5
AC
330
54
100
AcDbEntity
  8
A
  6
FIN
 62
     7
100
AcDbLine
 10
193.0500335693359
 20
205.0
 30
0.0
 11
193.0500335693359
 21
210.0
 31
0.0
  0
TEXT
  5
AD
330
54
100
AcDbEntity
  8
A
  6
FIN
 62
     7
100
AcDbText
 10
200.4750366210938
 20
205.5
 30
0.0
 40
2.657142857142857
  1
14
 41
0.9200000000000001
  7
ARIAL
100
AcDbText
  0
LINE
  5
AE
330
54
100
AcDbEntity
  8
A
  6
FIN
 62
     7
100
AcDbLine
 10
207.9000396728515
 20
205.0
 30
0.0
 11
207.9000396728515
 21
210.0
 31
0.0
  0
TEXT
  5
AF
330
54
100
AcDbEntity
  8
A
  6
FIN
 62
     7
100
AcDbText
 10
215.3250427246093
 20
205.5
 30
0.0
 40
2.657142857142857
  1
15
 41
0.9200000000000001
  7
ARIAL
100
AcDbText
  0
LINE
  5
B0
330
54
100
AcDbEntity
  8
A
  6
FIN
 62
     7
100
AcDbLine
 10
222.7500457763671
 20
205.0
 30
0.0
 11
222.7500457763671
 21
210.0
 31
0.0
  0
TEXT
  5
B1
330
54
100
AcDbEntity
  8
A
  6
FIN
 62
     7
100
AcDbText
 10
230.1750488281249
 20
205.5
 30
0.0
 40
2.657142857142857
  1
16
 41
0.9200000000000001
  7
ARIAL
100
AcDbText
  0
LINE
  5
B2
330
54
100
AcDbEntity
  8
A
  6
FIN
 62
     7
100
AcDbLine
 10
237.6000518798828
 20
205.0
 30
0.0
 11
237.6000518798828
 21
210.0
 31
0.0
  0
TEXT
  5
B3
330
54
100
AcDbEntity
  8
A
  6
FIN
 62
     7
100
AcDbText
 10
245.0250549316406
 20
205.5
 30
0.0
 40
2.657142857142857
  1
17
 41
0.9200000000000001
  7
ARIAL
100
AcDbText
  0
LINE
  5
B4
330
54
100
AcDbEntity
  8
A
  6
FIN
 62
     7
100
AcDbLine
 10
252.4500579833984
 20
205.0
 30
0.0
 11
252.4500579833984
 21
210.0
 31
0.0
  0
TEXT
  5
B5
330
54
100
AcDbEntity
  8
A
  6
FIN
 62
     7
100
AcDbText
 10
259.8750610351562
 20
205.5
 30
0.0
 40
2.657142857142857
  1
18
 41
0.9200000000000001
  7
ARIAL
100
AcDbText
  0
LINE
  5
B6
330
54
100
AcDbEntity
  8
A
  6
FIN
 62
     7
100
AcDbLine
 10
267.300048828125
 20
205.0
 30
0.0
 11
267.300048828125
 21
210.0
 31
0.0
  0
TEXT
  5
B7
330
54
100
AcDbEntity
  8
A
  6
FIN
 62
     7
100
AcDbText
 10
274.7250671386719
 20
205.5
 30
0.0
 40
2.657142857142857
  1
19
 41
0.9200000000000001
  7
ARIAL
100
AcDbText
  0
LINE
  5
B8
330
54
100
AcDbEntity
  8
A
  6
FIN
 62
     7
100
AcDbLine
 10
282.1500549316406
 20
205.0
 30
0.0
 11
282.1500549316406
 21
210.0
 31
0.0
  0
TEXT
  5
B9
330
54
100
AcDbEntity
  8
A
  6
FIN
 62
     7
100
AcDbText
 10
289.5750732421875
 20
205.5
 30
0.0
 40
2.657142857142857
  1
20
 41
0.9200000000000001
  7
ARIAL
100
AcDbText
  0
LINE
  5
BA
330
54
100
AcDbEntity
  8
A
  6
FIN
 62
     7
100
AcDbLine
 10
297.0000610351563
 20
205.0
 30
0.0
 11
297.0000610351563
 21
210.0
 31
0.0
  0
LWPOLYLINE
  5
BB
330
54
100
AcDbEntity
  8
A
  6
FIN
 62
     7
100
AcDbPolyline
 90
        5
 70
     0
 43
0.0
 10
0.0
 20
20.0
 10
0.0
 20
210.0
 10
297.0
 20
210.0
 10
297.0
 20
20.0
 10
0.0
 20
20.0
  0
LWPOLYLINE
  5
C2
330
54
100
AcDbEntity
  8
A
  6
FIN
 62
     7
100
AcDbPolyline
 90
        5
 70
     0
 43
0.0
 10
0.0
 20
0.0
 10
0.0
 20
210.0
 10
297.0
 20
210.0
 10
297.0
 20
0.0
 10
0.0
 20
0.0
  0
ENDBLK
  5
CA
330
54
100
AcDbEntity
  8
0
100
AcDbBlockEnd
  0
BLOCK
  5
144
330
13A
100
AcDbEntity
  8
0
100
AcDbBlockBegin
  2
004C0_000_0_3_1
 70
     2
 10
0.0
 20
0.0
 30
0.0
  3
004C0_000_0_3_1
  1

  0
ATTDEF
  5
13B
330
13A
100
AcDbEntity
  8
A
  6
FIN
 62
     3
100
AcDbText
 10
-4.204545474233043
 20
0.3503787808176693
 30
0.0
 40
1.280133883697645
  1

 41
0.9200000000000001
  7
ARIAL
 72
     4
 11
-4.204545474233043
 21
0.3503787808176693
 31
0.0
100
AcDbAttributeDefinition
  3

  2
$REPERE
 70
     0
 74
     2
  0
ATTDEF
  5
13C
330
13A
100
AcDbEntity
  8
A
  6
FIN
 62
     1
100
AcDbText
 10
1.751893877983093
 20
1.287642083854383
 30
0.0
 40
1.629261306524276
  1

 41
0.9200000000000001
  7
ARIAL
 11
1.751893877983093
 21
2.102272737116521
 31
0.0
100
AcDbAttributeDefinition
  3

  2
$NUM_EQUI
 70
     0
 74
     2
  0
ATTDEF
  5
13D
330
13A
100
AcDbEntity
  8
A
  6
FIN
 62
     1
100
AcDbText
 10
-3.854161185206976
 20
0.3504001610199339
 30
0.0
 40
1.280133883697645
  1

 41
0.9200000000000001
  7
ARIAL
 72
     4
 11
-3.854161185206976
 21
0.3504001610199339
 31
0.0
100
AcDbAttributeDefinition
  3

  2
$POS_REFCRO_1
 70
     0
 74
     2
  0
LINE
  5
13E
330
13A
100
AcDbEntity
  8
A
  6
CYAN
 62
     4
100
AcDbLine
 10
-7.007575511932372
 20
-1.401515123270677
 30
0.0
 11
-7.007575511932372
 21
1.401515123270677
 31
0.0
  0
LINE
  5
13F
330
13A
100
AcDbEntity
  8
A
  6
CYAN
 62
     4
100
AcDbLine
 10
-7.007575511932372
 20
1.401515123270677
 30
0.0
 11
-1.751893877983093
 21
1.401515123270677
 31
0.0
  0
LINE
  5
140
330
13A
100
AcDbEntity
  8
A
  6
CYAN
 62
     4
100
AcDbLine
 10
-1.751893877983093
 20
1.401515123270677
 30
0.0
 11
0.0
 21
0.0
 31
0.0
  0
LINE
  5
141
330
13A
100
AcDbEntity
  8
A
  6
CYAN
 62
     4
100
AcDbLine
 10
0.0
 20
0.0
 30
0.0
 11
-1.751893877983093
 21
-1.401515123270677
 31
0.0
  0
LINE
  5
142
330
13A
100
AcDbEntity
  8
A
  6
CYAN
 62
     4
100
AcDbLine
 10
-1.751893877983093
 20
-1.401515123270677
 30
0.0
 11
-7.007575511932372
 21
-1.401515123270677
 31
0.0
  0
LINE
  5
143
330
13A
100
AcDbEntity
  8
A
  6
CYAN
 62
     4
100
AcDbLine
 10
0.0
 20
0.0
 30
0.0
 11
0.7007575616353386
 21
0.0
 31
0.0
  0
ENDBLK
  5
145
330
13A
100
AcDbEntity
  8
0
100
AcDbBlockEnd
  0
BLOCK
  5
159
330
14F
100
AcDbEntity
  8
0
100
AcDbBlockBegin
  2
006C0_001_0_3_1
 70
     2
 10
0.0
 20
0.0
 30
0.0
  3
006C0_001_0_3_1
  1

  0
ATTDEF
  5
150
330
14F
100
AcDbEntity
  8
A
  6
FIN
 62
     3
100
AcDbText
 10
-2.803030246541354
 20
-0.464251872444469
 30
0.0
 40
1.629261306524276
  1

 41
0.9200000000000001
  7
ARIAL
 72
     2
 11
-2.803030246541354
 21
0.3503787808176693
 31
0.0
100
AcDbAttributeDefinition
  3

  2
$REPERE
 70
     0
 74
     2
  0
ATTDEF
  5
151
330
14F
100
AcDbEntity
  8
A
  6
FIN
 62
     1
100
AcDbText
 10
1.751893877983093
 20
1.287642083854383
 30
0.0
 40
1.629261306524276
  1

 41
0.9200000000000001
  7
ARIAL
 11
1.751893877983093
 21
2.102272737116521
 31
0.0
100
AcDbAttributeDefinition
  3

  2
$NUM_EQUI
 70
     0
 74
     2
  0
ATTDEF
  5
152
330
14F
100
AcDbEntity
  8
A
  6
FIN
 62
     1
100
AcDbText
 10
-3.503787755966186
 20
-0.4642304922422045
 30
0.0
 40
1.629261306524276
  1

 41
0.9200000000000001
  7
ARIAL
 72
     2
 11
-3.503787755966186
 21
0.3504001610199339
 31
0.0
100
AcDbAttributeDefinition
  3

  2
$POS_REFCRO_1
 70
     0
 74
     2
  0
LWPOLYLINE
  5
153
330
14F
100
AcDbEntity
  8
A
  6
CYAN
 62
     4
100
AcDbPolyline
 90
        4
 70
     0
 43
0.0
 10
0.0
 20
0.0
 10
-1.681818189693216
 20
0.8409090948466086
 10
-1.681818189693216
 20
-0.8409090948466086
 10
0.0
 20
0.0
  0
ENDBLK
  5
15A
330
14F
100
AcDbEntity
  8
0
100
AcDbBlockEnd
  0
BLOCK
  5
26A
330
15F
100
AcDbEntity
  8
0
100
AcDbBlockBegin
  2
_I446_KNX_0_3_1
 70
     2
 10
0.0
 20
0.0
 30
0.0
  3
_I446_KNX_0_3_1
  1

  0
ATTDEF
  5
160
330
15F
100
AcDbEntity
  8
A
  6
FIN
 62
     3
100
AcDbText
 10
-8.759469389915466
 20
-11.55874553637845
 30
0.0
 40
2.094764536959783
  1

 41
0.9200000000000001
  7
ARIAL
 72
     2
 11
-8.759469389915466
 21
-10.51136326789856
 31
0.0
100
AcDbAttributeDefinition
  3

  2
$ETIQUETTE
 70
     0
 74
     2
  0
ATTDEF
  5
161
330
15F
100
AcDbEntity
  8
A
  6
FIN
 62
     3
100
AcDbText
 10
-8.759469389915466
 20
-8.288962084988964
 30
0.0
 40
1.86201292174203
  1

 41
0.9200000000000001
  7
ARIAL
 72
     2
 11
-8.759469389915466
 21
-7.357955624117948
 31
0.0
100
AcDbAttributeDefinition
  3

  2
$LOCALISATION
 70
     0
 74
     2
  0
ATTDEF
  5
162
330
15F
100
AcDbEntity
  8
A
  6
FIN
 62
     3
100
AcDbText
 10
-8.759469389915466
 20
-5.485927870449143
 30
0.0
 40
1.86201292174203
  1

 41
0.9200000000000001
  7
ARIAL
 72
     2
 11
-8.759469389915466
 21
-4.554921409578128
 31
0.0
100
AcDbAttributeDefinition
  3

  2
$FONCTION
 70
     0
 74
     2
  0
ATTDEF
  5
163
330
15F
100
AcDbEntity
  8
A
  6
FIN
 62
     1
100
AcDbText
 10
-8.759469389915466
 20
-19.73508319889059
 30
0.0
 40
1.629261306524276
  1

 41
0.9200000000000001
  7
ARIAL
 72
     2
 11
-8.759469389915466
 21
-18.92045254562845
 31
0.0
100
AcDbAttributeDefinition
  3

  2
$POS_REFCRO_1
 70
     0
 74
     2
  0
ATTDEF
  5
164
330
15F
100
AcDbEntity
  8
A
  6
FIN
 62
     1
100
AcDbText
 10
-8.759469389915466
 20
-16.93204898435077
 30
0.0
 40
1.629261306524276
  1

 41
0.9200000000000001
  7
ARIAL
 72
     2
 11
-8.759469389915466
 21
-16.11741833108863
 31
0.0
100
AcDbAttributeDefinition
  3

  2
CODE
 70
     0
 74
     2
  0
ATTDEF
  5
165
330
15F
100
AcDbEntity
  8
A
  6
FIN
 62
     1
100
AcDbText
 10
-8.759471060651662
 20
-22.18773061830005
 30
0.0
 40
1.629261306524276
  1

 41
0.9200000000000001
  7
ARIAL
 72
     2
 11
-8.759471060651662
 21
-21.37309996503791
 31
0.0
100
AcDbAttributeDefinition
  3

  2
SYMBOLE
 70
     0
 74
     2
  0
ATTDEF
  5
166
330
15F
100
AcDbEntity
  8
A
  6
FIN
 62
     1
100
AcDbText
 10
-8.759469389915466
 20
-14.4794015649413
 30
0.0
 40
1.629261306524276
  1

 41
0.9200000000000001
  7
ARIAL
 72
     2
 11
-8.759469389915466
 21
-13.66477091167917
 31
0.0
100
AcDbAttributeDefinition
  3

  2
FABRICANT
 70
     0
 74
     2
  0
ATTDEF
  5
167
330
15F
100
AcDbEntity
  8
A
  6
FIN
 62
     1
100
AcDbText
 10
-8.75946270697068
 20
-24.64038472065428
 30
0.0
 40
1.629261306524276
  1

 41
0.9200000000000001
  7
ARIAL
 72
     2
 11
-8.75946270697068
 21
-23.82575406739215
 31
0.0
100
AcDbAttributeDefinition
  3

  2
SERIE
 70
     0
 74
     2
  0
ATTDEF
  5
168
330
15F
100
AcDbEntity
  8
A
  6
FIN
 62
     1
100
AcDbText
 10
0.0
 20
-2.452651387407925
 30
0.0
 40
1.512885498915399
  1

 41
0.9200000000000001
  7
ARIAL
 72
     4
 11
0.0
 21
-2.452651387407925
 31
0.0
100
AcDbAttributeDefinition
  3

  2
$PL:1
 70
     0
 74
     2
  0
ATTDEF
  5
169
330
15F
100
AcDbEntity
  8
A
  6
FIN
 62
     1
100
AcDbText
 10
7.007575511932372
 20
-2.45265159624995
 30
0.0
 40
1.512885498915399
  1

 41
0.9200000000000001
  7
ARIAL
 72
     4
 11
7.007575511932372
 21
-2.45265159624995
 31
0.0
100
AcDbAttributeDefinition
  3

  2
$PL:2
 70
     0
 74
     2
  0
ATTDEF
  5
16A
330
15F
100
AcDbEntity
  8
A
  6
FIN
 62
     1
100
AcDbText
 10
14.01515102386475
 20
-2.45265159624995
 30
0.0
 40
1.512885498915399
  1

 41
0.9200000000000001
  7
ARIAL
 72
     4
 11
14.01515102386475
 21
-2.45265159624995
 31
0.0
100
AcDbAttributeDefinition
  3

  2
$PL:3
 70
     0
 74
     2
  0
ATTDEF
  5
16B
330
15F
100
AcDbEntity
  8
A
  6
FIN
 62
     1
100
AcDbText
 10
21.02272653579712
 20
-2.452651387407925
 30
0.0
 40
1.512885498915399
  1

 41
0.9200000000000001
  7
ARIAL
 72
     4
 11
21.02272653579712
 21
-2.452651387407925
 31
0.0
100
AcDbAttributeDefinition
  3

  2
$PL:4
 70
     0
 74
     2
  0
ATTDEF
  5
16C
330
15F
100
AcDbEntity
  8
A
  6
FIN
 62
     1
100
AcDbText
 10
35.03787755966187
 20
-2.452651387407925
 30
0.0
 40
1.512885498915399
  1

 41
0.9200000000000001
  7
ARIAL
 72
     4
 11
35.03787755966187
 21
-2.452651387407925
 31
0.0
100
AcDbAttributeDefinition
  3

  2
$PL:5
 70
     0
 74
     2
  0
ATTDEF
  5
16D
330
15F
100
AcDbEntity
  8
A
  6
FIN
 62
     1
100
AcDbText
 10
0.0
 20
-24.87689273321269
 30
0.0
 40
1.512885498915399
  1

 41
0.9200000000000001
  7
ARIAL
 72
     4
 11
0.0
 21
-24.87689273321269
 31
0.0
100
AcDbAttributeDefinition
  3

  2
$PL:25
 70
     0
 74
     2
  0
ATTDEF
  5
16E
330
15F
100
AcDbEntity
  8
A
  6
FIN
 62
     1
100
AcDbText
 10
7.007575511932372
 20
-24.87689273321269
 30
0.0
 40
1.512885498915399
  1

 41
0.9200000000000001
  7
ARIAL
 72
     4
 11
7.007575511932372
 21
-24.87689273321269
 31
0.0
100
AcDbAttributeDefinition
  3

  2
$PL:26
 70
     0
 74
     2
  0
ATTDEF
  5
16F
330
15F
100
AcDbEntity
  8
A
  6
FIN
 62
     1
100
AcDbText
 10
14.01515102386475
 20
-24.87689273321269
 30
0.0
 40
1.512885498915399
  1

 41
0.9200000000000001
  7
ARIAL
 72
     4
 11
14.01515102386475
 21
-24.87689273321269
 31
0.0
100
AcDbAttributeDefinition
  3

  2
$PL:27
 70
     0
 74
     2
  0
ATTDEF
  5
170
330
15F
100
AcDbEntity
  8
A
  6
FIN
 62
     1
100
AcDbText
 10
21.02272653579712
 20
-24.87689273321269
 30
0.0
 40
1.512885498915399
  1

 41
0.9200000000000001
  7
ARIAL
 72
     4
 11
21.02272653579712
 21
-24.87689273321269
 31
0.0
100
AcDbAttributeDefinition
  3

  2
$PL:28
 70
     0
 74
     2
  0
LWPOLYLINE
  5
171
330
15F
100
AcDbEntity
  8
A
  6
FIN
 62
     7
100
AcDbPolyline
 90
        5
 70
     0
 43
0.0
 10
-7.007575511932372
 20
0.0
 10
42.04545307159424
 20
0.0
 10
42.04545307159424
 20
-28.03030204772948
 10
-7.007575511932372
 20
-28.03030204772948
 10
-7.007575511932372
 20
0.0
  0
CIRCLE
  5
178
330
15F
100
AcDbEntity
  8
A
  6
SYMBOL_C
 62
     4
100
AcDbCircle
 10
21.02272653579712
 20
-0.7007568828987587
 30
0.0
 40
0.7007568828987587
  0
CIRCLE
  5
179
330
15F
100
AcDbEntity
  8
A
  6
SYMBOL_C
 62
     4
100
AcDbCircle
 10
35.03787755966187
 20
-0.7007568828987587
 30
0.0
 40
0.7007568828987587
  0
CIRCLE
  5
17A
330
15F
100
AcDbEntity
  8
A
  6
SYMBOL_C
 62
     4
100
AcDbCircle
 10
0.0
 20
-27.32954516483073
 30
0.0
 40
0.7007568828987587
  0
CIRCLE
  5
17B
330
15F
100
AcDbEntity
  8
A
  6
SYMBOL_C
 62
     4
100
AcDbCircle
 10
7.007575511932372
 20
-27.32954516483073
 30
0.0
 40
0.7007568828987587
  0
CIRCLE
  5
17C
330
15F
100
AcDbEntity
  8
A
  6
SYMBOL_C
 62
     4
100
AcDbCircle
 10
14.01515102386475
 20
-27.32954516483073
 30
0.0
 40
0.7007568828987587
  0
CIRCLE
  5
17D
330
15F
100
AcDbEntity
  8
A
  6
SYMBOL_C
 62
     4
100
AcDbCircle
 10
21.02272653579712
 20
-27.32954516483073
 30
0.0
 40
0.7007568828987587
  0
CIRCLE
  5
17E
330
15F
100
AcDbEntity
  8
A
  6
SYMBOL_C
 62
     4
100
AcDbCircle
 10
0.0
 20
-0.7007568828987587
 30
0.0
 40
0.7007568828987587
  0
CIRCLE
  5
17F
330
15F
100
AcDbEntity
  8
A
  6
SYMBOL_C
 62
     4
100
AcDbCircle
 10
7.007575511932372
 20
-0.7007568828987587
 30
0.0
 40
0.7007568828987587
  0
CIRCLE
  5
180
330
15F
100
AcDbEntity
  8
A
  6
SYMBOL_C
 62
     4
100
AcDbCircle
 10
14.01515102386475
 20
-0.7007568828987587
 30
0.0
 40
0.7007568828987587
  0
LINE
  5
181
330
15F
100
AcDbEntity
  8
A
  6
FIN
 62
     7
100
AcDbLine
 10
0.0
 20
-21.02272653579712
 30
0.0
 11
21.02272653579712
 21
-21.02272653579712
 31
0.0
  0
LWPOLYLINE
  5
182
330
15F
100
AcDbEntity
  8
A
  6
MOYEN
 62
     4
100
AcDbPolyline
 90
       91
 70
     0
 43
0.0
 10
32.23484668659444
 20
-5.606060910766756
 10
32.26599255076961
 20
-5.559863384197286
 10
32.29713841494481
 20
-5.51470338480584
 10
32.32828427912
 20
-5.470580912592425
 10
32.35943014329519
 20
-5.427497638293231
 10
32.39057600747037
 20
-5.385451891172068
 10
32.42172187164555
 20
-5.344445341965126
 10
32.45286773582075
 20
-5.304476319936213
 10
32.48401359999592
 20
-5.265544825085328
 10
32.51515946417112
 20
-5.227652528148666
 10
32.5463053283463
 20
-5.190797758390033
 10
32.57745119252148
 20
-5.154980515809427
 10
32.60859705669668
 20
-5.120202471143044
 10
32.63974292087187
 20
-5.086461953654692
 10
32.67088878504706
 20
-5.05376063408056
 10
32.70203464922224
 20
-5.022096841684458
 10
32.73318051339742
 20
-4.991470576466383
 10
32.76432637757262
 20
-4.961883509162532
 10
32.7954722417478
 20
-4.933333969036709
 10
32.82661810592299
 20
-4.905821956088914
 10
32.85776397009818
 20
-4.879349141055342
 10
32.88890983427335
 20
-4.853913853199799
 10
32.92005569844855
 20
-4.82951776325848
 10
32.95120156262373
 20
-4.806159200495188
 10
32.98234742679892
 20
-4.783838164909923
 10
33.01349329097411
 20
-4.762556327238883
 10
33.0446391551493
 20
-4.742312016745871
 10
33.07578501932449
 20
-4.723106904167082
 10
33.10693088349967
 20
-4.704939318766321
 10
33.13807674767486
 20
-4.687809260543588
 10
33.16922261185005
 20
-4.671718400235079
 10
33.20036847602522
 20
-4.656665067104597
 10
33.23151434020042
 20
-4.642649261152143
 10
33.26266020437561
 20
-4.629672653113914
 10
33.29380606855078
 20
-4.617733572253711
 10
33.32495193272598
 20
-4.606833689307733
 10
33.35609779690117
 20
-4.596971333539784
 10
33.38724366107634
 20
-4.588146504949862
 10
33.41838952525154
 20
-4.580360874274163
 10
33.44953538942673
 20
-4.573612770776492
 10
33.48068125360192
 20
-4.567902194456848
 10
33.5118271177771
 20
-4.563230816051429
 10
33.54297298195229
 20
-4.559596964824038
 10
33.57411884612748
 20
-4.557002311510871
 10
33.60526471030265
 20
-4.555445185375731
 10
33.63641057447785
 20
-4.554925586418619
 10
33.66755643865303
 20
-4.555445185375731
 10
33.69870230282821
 20
-4.557002311510871
 10
33.72984816700341
 20
-4.559596964824038
 10
33.7609940311786
 20
-4.563230816051429
 10
33.79213989535379
 20
-4.567902194456848
 10
33.82328575952897
 20
-4.573612770776492
 10
33.85443162370416
 20
-4.580360874274163
 10
33.88557748787935
 20
-4.588146504949862
 10
33.91672335205453
 20
-4.596971333539784
 10
33.94786921622972
 20
-4.606833689307733
 10
33.97901508040491
 20
-4.617733572253711
 10
34.01016094458008
 20
-4.629672653113914
 10
34.04130680875528
 20
-4.642649261152143
 10
34.07245267293046
 20
-4.656665067104597
 10
34.10359853710565
 20
-4.671718400235079
 10
34.13474440128084
 20
-4.687809260543588
 10
34.16589026545603
 20
-4.704939318766321
 10
34.19703612963122
 20
-4.723106904167082
 10
34.2281819938064
 20
-4.742312016745871
 10
34.25932785798158
 20
-4.762556327238883
 10
34.29047372215678
 20
-4.783838164909923
 10
34.32161958633195
 20
-4.806159200495188
 10
34.35276545050715
 20
-4.82951776325848
 10
34.38391131468234
 20
-4.853913853199799
 10
34.41505717885751
 20
-4.879349141055342
 10
34.44620304303271
 20
-4.905821956088914
 10
34.4773489072079
 20
-4.933333969036709
 10
34.50849477138307
 20
-4.961883509162532
 10
34.53964063555827
 20
-4.991470576466383
 10
34.57078649973346
 20
-5.022096841684458
 10
34.60193236390864
 20
-5.05376063408056
 10
34.63307822808383
 20
-5.086461953654692
 10
34.66422409225902
 20
-5.120202471143044
 10
34.69536995643421
 20
-5.154980515809427
 10
34.72651582060938
 20
-5.190797758390033
 10
34.75766168478457
 20
-5.227652528148666
 10
34.78880754895977
 20
-5.265544825085328
 10
34.81995341313495
 20
-5.304476319936213
 10
34.85109927731014
 20
-5.344445341965126
 10
34.88224514148532
 20
-5.385451891172068
 10
34.91339100566052
 20
-5.427497638293231
 10
34.9445368698357
 20
-5.470580912592425
 10
34.97568273401089
 20
-5.51470338480584
 10
35.00682859818607
 20
-5.559863384197286
 10
35.03787755966187
 20
-5.606060910766756
  0
LWPOLYLINE
  5
1DF
330
15F
100
AcDbEntity
  8
A
  6
MOYEN
 62
     4
100
AcDbPolyline
 90
       91
 70
     0
 43
0.0
 10
35.03787755966187
 20
-5.606060910766756
 10
35.06902342383705
 20
-5.652258437336229
 10
35.10016928801224
 20
-5.697418436727674
 10
35.13131515218742
 20
-5.74154090894109
 10
35.16246101636261
 20
-5.784624183240282
 10
35.19360688053779
 20
-5.826669930361447
 10
35.22475274471299
 20
-5.867676479568387
 10
35.25589860888817
 20
-5.907645501597301
 10
35.28704447306336
 20
-5.946576996448188
 10
35.31819033723854
 20
-5.984469293384847
 10
35.34933620141374
 20
-6.021324063143482
 10
35.38048206558892
 20
-6.057141305724088
 10
35.41162792976411
 20
-6.091919350390468
 10
35.44277379393929
 20
-6.125659867878824
 10
35.47391965811447
 20
-6.158361187452953
 10
35.50506552228966
 20
-6.190024979849057
 10
35.53621138646485
 20
-6.22065124506713
 10
35.56735725064003
 20
-6.250238312370981
 10
35.59850311481522
 20
-6.278787852496805
 10
35.62964897899042
 20
-6.306299865444601
 10
35.6607948431656
 20
-6.332772680478171
 10
35.69194070734079
 20
-6.358207968333716
 10
35.72308657151598
 20
-6.382604058275035
 10
35.75423243569117
 20
-6.405962621038327
 10
35.78537829986635
 20
-6.428283656623592
 10
35.81652416404153
 20
-6.449565494294632
 10
35.84767002821672
 20
-6.469809804787644
 10
35.8788158923919
 20
-6.489016588102629
 10
35.9099617565671
 20
-6.507184173503389
 10
35.94110762074228
 20
-6.524314231726122
 10
35.97225348491746
 20
-6.540405092034633
 10
36.00339934909265
 20
-6.555458425165113
 10
36.03454521326785
 20
-6.569474231117566
 10
36.06569107744303
 20
-6.582450839155797
 10
36.09683694161822
 20
-6.594389920015998
 10
36.1279828057934
 20
-6.605289802961977
 10
36.1591286699686
 20
-6.615152158729927
 10
36.19027453414378
 20
-6.623976987319849
 10
36.22142039831897
 20
-6.631762617995548
 10
36.25256626249415
 20
-6.638510721493219
 10
36.28371212666934
 20
-6.644221297812862
 10
36.31485799084453
 20
-6.64889267621828
 10
36.34600385501971
 20
-6.652526527445672
 10
36.37714971919489
 20
-6.65512118075884
 10
36.40829558337009
 20
-6.65667830689398
 10
36.43944144754527
 20
-6.657197905851091
 10
36.47058731172046
 20
-6.65667830689398
 10
36.50173317589564
 20
-6.65512118075884
 10
36.53287904007084
 20
-6.652526527445672
 10
36.56402490424603
 20
-6.64889267621828
 10
36.59517076842121
 20
-6.644221297812862
 10
36.6263166325964
 20
-6.638510721493219
 10
36.65746249677159
 20
-6.631762617995548
 10
36.68860836094677
 20
-6.623976987319849
 10
36.71975422512196
 20
-6.615152158729927
 10
36.75090008929714
 20
-6.605289802961977
 10
36.78204595347232
 20
-6.594389920015998
 10
36.81319181764752
 20
-6.582450839155797
 10
36.8443376818227
 20
-6.569474231117566
 10
36.87548354599789
 20
-6.555458425165113
 10
36.90662941017307
 20
-6.540405092034633
 10
36.93777527434827
 20
-6.524314231726122
 10
36.96892113852346
 20
-6.507184173503389
 10
37.00006700269864
 20
-6.489016588102629
 10
37.03121286687383
 20
-6.469809804787644
 10
37.06235873104902
 20
-6.449565494294632
 10
37.0935045952242
 20
-6.428283656623592
 10
37.12465045939939
 20
-6.405962621038327
 10
37.15579632357457
 20
-6.382604058275035
 10
37.18694218774976
 20
-6.358207968333716
 10
37.21808805192495
 20
-6.332772680478171
 10
37.24923391610014
 20
-6.306299865444601
 10
37.28037978027532
 20
-6.278787852496805
 10
37.3115256444505
 20
-6.250238312370981
 10
37.3426715086257
 20
-6.22065124506713
 10
37.37381737280088
 20
-6.190024979849057
 10
37.40496323697607
 20
-6.158361187452953
 10
37.43610910115126
 20
-6.125659867878824
 10
37.46725496532645
 20
-6.091919350390468
 10
37.49840082950163
 20
-6.057141305724088
 10
37.52954669367682
 20
-6.021324063143482
 10
37.56069255785201
 20
-5.984469293384847
 10
37.5918384220272
 20
-5.946576996448188
 10
37.62298428620238
 20
-5.907645501597301
 10
37.65413015037756
 20
-5.867676479568387
 10
37.68527601455276
 20
-5.826669930361447
 10
37.71642187872793
 20
-5.784624183240282
 10
37.74756774290313
 20
-5.74154090894109
 10
37.77871360707831
 20
-5.697418436727674
 10
37.8098594712535
 20
-5.652258437336229
 10
37.84090843272928
 20
-5.606060910766756
  0
LINE
  5
23C
330
15F
100
AcDbEntity
  8
A
  6
MOYEN
 62
     4
100
AcDbLine
 10
33.63636379386434
 20
-6.657197905851091
 30
0.0
 11
36.43939466693178
 21
-4.554925586418619
 31
0.0
  0
LINE
  5
23D
330
15F
100
AcDbEntity
  8
A
  6
MOYEN
 62
     4
100
AcDbLine
 10
37.03053454797805
 20
-4.101698295448783
 30
0.0
 11
36.58619891504599
 21
-4.746980053678896
 31
0.0
  0
LINE
  5
23E
330
15F
100
AcDbEntity
  8
A
  6
MOYEN
 62
     4
100
AcDbLine
 10
36.58619891504599
 20
-4.746980053678896
 30
0.0
 11
36.28790233305017
 21
-4.351324661304317
 31
0.0
  0
LINE
  5
23F
330
15F
100
AcDbEntity
  8
A
  6
MOYEN
 62
     4
100
AcDbLine
 10
36.28790233305017
 20
-4.351324661304317
 30
0.0
 11
37.03053454797805
 21
-4.101698295448783
 31
0.0
  0
LINE
  5
240
330
15F
100
AcDbEntity
  8
A
  6
MOYEN
 62
     4
100
AcDbLine
 10
36.99096817337249
 20
-4.131529290237323
 30
0.0
 11
36.98609630662349
 21
-4.16622881030247
 31
0.0
  0
LINE
  5
241
330
15F
100
AcDbEntity
  8
A
  6
MOYEN
 62
     4
100
AcDbLine
 10
36.94166474821372
 20
-4.230755983683764
 30
0.0
 11
36.95139511582215
 21
-4.16136195576206
 31
0.0
  0
LINE
  5
242
330
15F
100
AcDbEntity
  8
A
  6
MOYEN
 62
     4
100
AcDbLine
 10
36.91183876563378
 20
-4.191189609078207
 30
0.0
 11
36.89722650685917
 21
-4.295283157065056
 31
0.0
  0
LINE
  5
243
330
15F
100
AcDbEntity
  8
A
  6
MOYEN
 62
     4
100
AcDbLine
 10
36.85280163139418
 20
-4.359808659710154
 30
0.0
 11
36.87226570808343
 21
-4.22102394533914
 31
0.0
  0
LINE
  5
244
330
15F
100
AcDbEntity
  8
A
  6
MOYEN
 62
     4
100
AcDbLine
 10
36.83270267495027
 20
-4.25085494012768
 30
0.0
 11
36.80836339003963
 21
-4.424342516036233
 31
0.0
  0
LINE
  5
245
330
15F
100
AcDbEntity
  8
A
  6
MOYEN
 62
     4
100
AcDbLine
 10
36.76392849015746
 20
-4.488871360153722
 30
0.0
 11
36.7931396418171
 21
-4.280682593443827
 31
0.0
  0
LINE
  5
246
330
15F
100
AcDbEntity
  8
A
  6
MOYEN
 62
     4
100
AcDbLine
 10
36.75357326721155
 20
-4.310511917496171
 30
0.0
 11
36.7195002732201
 21
-4.553398533535016
 31
0.0
  0
LINE
  5
247
330
15F
100
AcDbEntity
  8
A
  6
MOYEN
 62
     4
100
AcDbLine
 10
36.67506203186553
 20
-4.617927377652506
 30
0.0
 11
36.71400689260599
 21
-4.340342912284712
 31
0.0
  0
LINE
  5
248
330
15F
100
AcDbEntity
  8
A
  6
MOYEN
 62
     4
100
AcDbLine
 10
36.67443717652805
 20
-4.370175577809447
 30
0.0
 11
36.63063047345577
 21
-4.682454551033799
 31
0.0
  0
LINE
  5
249
330
15F
100
AcDbEntity
  8
A
  6
MOYEN
 62
     4
100
AcDbLine
 10
36.58619557357361
 20
-4.746980053678896
 30
0.0
 11
36.63487080192249
 21
-4.400004901861792
 31
0.0
  0
LINE
  5
24A
330
15F
100
AcDbEntity
  8
A
  6
MOYEN
 62
     4
100
AcDbLine
 10
36.59530776878933
 20
-4.429834225914135
 30
0.0
 11
36.55636624952125
 21
-4.707417020545733
 31
0.0
  0
LINE
  5
24B
330
15F
100
AcDbEntity
  8
A
  6
MOYEN
 62
     4
100
AcDbLine
 10
36.52653692546892
 20
-4.667852316676373
 30
0.0
 11
36.55573805271138
 21
-4.459663549966478
 31
0.0
  0
LINE
  5
24C
330
15F
100
AcDbEntity
  8
A
  6
MOYEN
 62
     4
100
AcDbLine
 10
36.5161750195782
 20
-4.489492874018822
 30
0.0
 11
36.49670425994418
 21
-4.628280929862228
 31
0.0
  0
LINE
  5
24D
330
15F
100
AcDbEntity
  8
A
  6
MOYEN
 62
     4
100
AcDbLine
 10
36.46687827736422
 20
-4.588716225992869
 30
0.0
 11
36.47661198644504
 21
-4.519328881015952
 31
0.0
  0
LINE
  5
24E
330
15F
100
AcDbEntity
  8
A
  6
MOYEN
 62
     4
100
AcDbLine
 10
36.99340410674699
 20
-4.114173682628064
 30
0.0
 11
36.99097485631728
 21
-4.131522607292538
 31
0.0
  0
LINE
  5
24F
330
15F
100
AcDbEntity
  8
A
  6
MOYEN
 62
     4
100
AcDbLine
 10
36.95140514023933
 20
-4.161356943553471
 30
0.0
 11
36.95627700698833
 21
-4.126655752752128
 31
0.0
  0
LINE
  5
250
330
15F
100
AcDbEntity
  8
A
  6
MOYEN
 62
     4
100
AcDbLine
 10
36.91913988281248
 20
-4.139141164348586
 30
0.0
 11
36.91184210710616
 21
-4.191186267605814
 31
0.0
  0
LINE
  5
251
330
15F
100
AcDbEntity
  8
A
  6
MOYEN
 62
     4
100
AcDbLine
 10
36.87227573250061
 20
-4.221015591658158
 30
0.0
 11
36.88200610010904
 21
-4.151616551527865
 31
0.0
  0
LINE
  5
252
330
15F
100
AcDbEntity
  8
A
  6
MOYEN
 62
     4
100
AcDbLine
 10
36.84487565887798
 20
-4.164101963124323
 30
0.0
 11
36.83270935789506
 21
-4.250848257182894
 31
0.0
  0
LINE
  5
253
330
15F
100
AcDbEntity
  8
A
  6
MOYEN
 62
     4
100
AcDbLine
 10
36.7931429832895
 20
-4.280675910499041
 30
0.0
 11
36.80774521764692
 21
-4.1765790210398
 31
0.0
  0
LINE
  5
254
330
15F
100
AcDbEntity
  8
A
  6
MOYEN
 62
     4
100
AcDbLine
 10
36.77061143494347
 20
-4.189066103372453
 30
0.0
 11
36.75357660868393
 21
-4.310508576023779
 31
0.0
  0
LINE
  5
255
330
15F
100
AcDbEntity
  8
A
  6
MOYEN
 62
     4
100
AcDbLine
 10
36.71401357555078
 20
-4.340334558603728
 30
0.0
 11
36.73348433518481
 21
-4.201541490551733
 31
0.0
  0
LINE
  5
256
330
15F
100
AcDbEntity
  8
A
  6
MOYEN
 62
     4
100
AcDbLine
 10
36.69635389395375
 20
-4.214028572884387
 30
0.0
 11
36.67444385947283
 21
-4.370170565600859
 31
0.0
  0
LINE
  5
257
330
15F
100
AcDbEntity
  8
A
  6
MOYEN
 62
     4
100
AcDbLine
 10
36.63488082633967
 20
-4.399999889653201
 30
0.0
 11
36.65922011125031
 21
-4.226508972272256
 31
0.0
  0
LINE
  5
258
330
15F
100
AcDbEntity
  8
A
  6
MOYEN
 62
     4
100
AcDbLine
 10
36.62208632854685
 20
-4.238991042396321
 30
0.0
 11
36.59531111026172
 21
-4.429829213705545
 31
0.0
  0
LINE
  5
259
330
15F
100
AcDbEntity
  8
A
  6
MOYEN
 62
     4
100
AcDbLine
 10
36.55574139418377
 20
-4.459660208494085
 30
0.0
 11
36.5849525458434
 21
-4.251469771047993
 31
0.0
  0
LINE
  5
25A
330
15F
100
AcDbEntity
  8
A
  6
MOYEN
 62
     4
100
AcDbLine
 10
36.54782210461235
 20
-4.263948499699665
 30
0.0
 11
36.516181702523
 21
-4.489489532546428
 31
0.0
  0
LINE
  5
25B
330
15F
100
AcDbEntity
  8
A
  6
MOYEN
 62
     4
100
AcDbLine
 10
36.47661866938984
 20
-4.519322198071166
 30
0.0
 11
36.5106883219089
 21
-4.276438923504713
 31
0.0
  0
LINE
  5
25C
330
15F
100
AcDbEntity
  8
A
  6
MOYEN
 62
     4
100
AcDbLine
 10
36.47355453920545
 20
-4.288915981420188
 30
0.0
 11
36.43704895331189
 21
-4.549151522123509
 31
0.0
  0
LINE
  5
25D
330
15F
100
AcDbEntity
  8
A
  6
MOYEN
 62
     4
100
AcDbLine
 10
36.40722297073193
 20
-4.509590159726542
 30
0.0
 11
36.43643078091918
 21
-4.301394710071861
 31
0.0
  0
LINE
  5
25E
330
15F
100
AcDbEntity
  8
A
  6
MOYEN
 62
     4
100
AcDbLine
 10
36.39929365674334
 20
-4.313876780195926
 30
0.0
 11
36.37739364667959
 21
-4.470023785120986
 31
0.0
  0
LINE
  5
25F
330
15F
100
AcDbEntity
  8
A
  6
MOYEN
 62
     4
100
AcDbLine
 10
36.34756098115486
 20
-4.430465764196413
 30
0.0
 11
36.36216655698467
 21
-4.326365533264777
 31
0.0
  0
LINE
  5
260
330
15F
100
AcDbEntity
  8
A
  6
MOYEN
 62
     4
100
AcDbLine
 10
36.32503277428122
 20
-4.338840920444056
 30
0.0
 11
36.31772831563011
 21
-4.390896048118463
 31
0.0
  0
TEXT
  5
261
330
15F
100
AcDbEntity
  8
A
  6
FIN
 62
     1
100
AcDbText
 10
-0.540696608664212
 20
-6.026141651253606
 30
0.0
 40
1.512885498915399
  1
L
 41
0.9200000000000001
  7
ARIAL
 72
     4
 11
0.0
 21
-5.269698901795906
 31
0.0
100
AcDbText
  0
TEXT
  5
262
330
15F
100
AcDbEntity
  8
A
  6
FIN
 62
     1
100
AcDbText
 10
13.313052860149
 20
-6.026141651253606
 30
0.0
 40
1.512885498915399
  1
N
 41
0.9200000000000001
  7
ARIAL
 72
     4
 11
14.0151514415488
 21
-5.269698901795906
 31
0.0
100
AcDbText
  0
TEXT
  5
263
330
15F
100
AcDbEntity
  8
A
  6
FIN
 62
     1
100
AcDbText
 10
6.466879320952211
 20
-6.026141651253606
 30
0.0
 40
1.512885498915399
  1
L
 41
0.9200000000000001
  7
ARIAL
 72
     4
 11
7.007575929616423
 21
-5.269698901795906
 31
0.0
100
AcDbText
  0
TEXT
  5
264
330
15F
100
AcDbEntity
  8
A
  6
FIN
 62
     1
100
AcDbText
 10
20.32062711902922
 20
-6.026141651253606
 30
0.0
 40
1.512885498915399
  1
N
 41
0.9200000000000001
  7
ARIAL
 72
     4
 11
21.02272570042902
 21
-5.269698901795906
 31
0.0
100
AcDbText
  0
TEXT
  5
265
330
15F
100
AcDbEntity
  8
A
  6
FIN
 62
     1
100
AcDbText
 10
5.710665695937786
 20
-23.54508147529466
 30
0.0
 40
1.512885498915399
  1
BK
 41
0.9200000000000001
  7
ARIAL
 72
     4
 11
7.007578018036668
 21
-22.78863872583695
 31
0.0
100
AcDbText
  0
TEXT
  5
266
330
15F
100
AcDbEntity
  8
A
  6
FIN
 62
     1
100
AcDbText
 10
-1.404197162799595
 20
-23.54508147529466
 30
0.0
 40
1.512885498915399
  1
RD
 41
0.9200000000000001
  7
ARIAL
 72
     4
 11
0.0
 21
-22.78863872583695
 31
0.0
100
AcDbText
  0
TEXT
  5
267
330
15F
100
AcDbEntity
  8
A
  6
FIN
 62
     1
100
AcDbText
 10
19.72581839053872
 20
-23.54508147529466
 30
0.0
 40
1.512885498915399
  1
BK
 41
0.9200000000000001
  7
ARIAL
 72
     4
 11
21.0227307126376
 21
-22.78863872583695
 31
0.0
100
AcDbText
  0
TEXT
  5
268
330
15F
100
AcDbEntity
  8
A
  6
FIN
 62
     1
100
AcDbText
 10
12.6109534433811
 20
-23.54508147529466
 30
0.0
 40
1.512885498915399
  1
RD
 41
0.9200000000000001
  7
ARIAL
 72
     4
 11
14.01515060618069
 21
-22.78863872583695
 31
0.0
100
AcDbText
  0
TEXT
  5
269
330
15F
100
AcDbEntity
  8
A
  6
FIN
 62
     1
100
AcDbText
 10
6.29687293276171
 20
-20.02890993625413
 30
0.0
 40
1.512885498915399
  1
Bus  KNX
 41
0.9200000000000001
  7
ARIAL
 72
     4
 11
10.51136326789856
 21
-19.28485096987077
 31
0.0
100
AcDbText
  0
ENDBLK
  5
26B
330
15F
100
AcDbEntity
  8
0
100
AcDbBlockEnd
  0
BLOCK
  5
2C5
330
27F
100
AcDbEntity
  8
0
100
AcDbBlockBegin
  2
X12C0_X01_0_3_1
 70
     2
 10
0.0
 20
0.0
 30
0.0
  3
X12C0_X01_0_3_1
  1

  0
ATTDEF
  5
280
330
27F
100
AcDbEntity
  8
A
  6
FIN
 62
     3
100
AcDbText
 10
1.401515123270677
 20
1.52164492653691
 30
0.0
 40
1.86201292174203
  1

 41
0.9200000000000001
  7
ARIAL
 11
1.401515123270677
 21
2.452651387407925
 31
0.0
100
AcDbAttributeDefinition
  3

  2
$BORNE
 70
     0
 74
     2
  0
ATTDEF
  5
281
330
27F
100
AcDbEntity
  8
A
  6
FIN
 62
     3
100
AcDbText
 10
-1.401515123270677
 20
1.52164492653691
 30
0.0
 40
1.86201292174203
  1

 41
0.9200000000000001
  7
ARIAL
 72
     2
 11
-1.401515123270677
 21
2.452651387407925
 31
0.0
100
AcDbAttributeDefinition
  3

  2
$NOMCOMP
 70
     0
 74
     2
  0
ATTDEF
  5
282
330
27F
100
AcDbEntity
  8
A
  6
FIN
 62
     1
100
AcDbText
 10
1.401515123270677
 20
-2.566524531245231
 30
0.0
 40
1.629261306524276
  1

 41
0.9200000000000001
  7
ARIAL
 11
1.401515123270677
 21
-1.751893877983093
 31
0.0
100
AcDbAttributeDefinition
  3

  2
$CABABOU
 70
     0
 74
     2
  0
ATTDEF
  5
283
330
27F
100
AcDbEntity
  8
A
  6
FIN
 62
     1
100
AcDbText
 10
1.401515123270677
 20
-4.843986489086443
 30
0.0
 40
1.629261306524276
  1

 41
0.9200000000000001
  7
ARIAL
 11
1.401515123270677
 21
-4.029355835824305
 31
0.0
100
AcDbAttributeDefinition
  3

  2
$BRIN_ABOUTISSANT
 70
     0
 74
     2
  0
ATTDEF
  5
284
330
27F
100
AcDbEntity
  8
A
  6
FIN
 62
     1
100
AcDbText
 10
1.401515123270677
 20
-7.121448864611704
 30
0.0
 40
1.629261306524276
  1

 41
0.9200000000000001
  7
ARIAL
 11
1.401515123270677
 21
-6.306818211349566
 31
0.0
100
AcDbAttributeDefinition
  3

  2
$CODCABA
 70
     0
 74
     2
  0
ATTDEF
  5
285
330
27F
100
AcDbEntity
  8
A
  6
FIN
 62
     3
100
AcDbText
 10
-1.401515123270677
 20
4.441050980687142
 30
0.0
 40
1.629261306524276
  1

 41
0.9200000000000001
  7
ARIAL
 72
     2
 11
-1.401515123270677
 21
5.25568163394928
 31
0.0
100
AcDbAttributeDefinition
  3

  2
$LOCALISATION
 70
     0
 74
     2
  0
ATTDEF
  5
286
330
27F
100
AcDbEntity
  8
A
  6
FIN
 62
     3
100
AcDbText
 10
-1.401515123270677
 20
6.893702576937092
 30
0.0
 40
1.629261306524276
  1

 41
0.9200000000000001
  7
ARIAL
 72
     2
 11
-1.401515123270677
 21
7.70833323019923
 31
0.0
100
AcDbAttributeDefinition
  3

  2
$FONCTION
 70
     0
 74
     2
  0
LINE
  5
287
330
27F
100
AcDbEntity
  8
A
  6
MOYEN
 62
     4
100
AcDbLine
 10
0.0
 20
3.503787755966186
 30
0.0
 11
0.0
 21
1.05113636855826
 31
0.0
  0
LINE
  5
288
330
27F
100
AcDbEntity
  8
A
  6
MOYEN
 62
     4
100
AcDbLine
 10
0.0
 20
-1.05113636855826
 30
0.0
 11
0.0
 21
-3.503787755966186
 31
0.0
  0
CIRCLE
  5
289
330
27F
100
AcDbEntity
  8
A
  6
MOYEN
 62
     4
100
AcDbCircle
 10
0.0
 20
0.0
 30
0.0
 40
1.05113636855826
  0
LINE
  5
28A
330
27F
100
AcDbEntity
  8
A
  6
MOYEN
 62
     4
100
AcDbLine
 10
-0.2700768034267895
 20
-1.015442864877208
 30
0.0
 11
0.2700759680586913
 21
-1.015442864877208
 31
0.0
  0
LINE
  5
28B
330
27F
100
AcDbEntity
  8
A
  6
MOYEN
 62
     4
100
AcDbLine
 10
0.3775593353672306
 20
-0.9804049163112578
 30
0.0
 11
-0.3775601446300758
 21
-0.9804049163112578
 31
0.0
  0
LINE
  5
28C
330
27F
100
AcDbEntity
  8
A
  6
MOYEN
 62
     4
100
AcDbLine
 10
-0.4600779881120722
 20
-0.9453670721663199
 30
0.0
 11
0.4600772571649864
 21
-0.9453670721663199
 31
0.0
  0
LINE
  5
28D
330
27F
100
AcDbEntity
  8
A
  6
MOYEN
 62
     4
100
AcDbLine
 10
0.5259788199099269
 20
-0.9103292280213821
 30
0.0
 11
-0.5259794986465068
 21
-0.9103292280213821
 31
0.0
  0
LINE
  5
28E
330
27F
100
AcDbEntity
  8
A
  6
MOYEN
 62
     4
100
AcDbLine
 10
-0.5812765854892135
 20
-0.875291331665938
 30
0.0
 11
0.5812758545421275
 21
-0.875291331665938
 31
0.0
  0
LINE
  5
28F
330
27F
100
AcDbEntity
  8
A
  6
MOYEN
 62
     4
100
AcDbLine
 10
0.6305241454064117
 20
-0.840253435310494
 30
0.0
 11
-0.6305249285640038
 21
-0.840253435310494
 31
0.0
  0
LINE
  5
290
330
27F
100
AcDbEntity
  8
A
  6
MOYEN
 62
     4
100
AcDbLine
 10
-0.674698828125969
 20
-0.805215591165556
 30
0.0
 11
0.674698097178883
 21
-0.805215591165556
 31
0.0
  0
LINE
  5
291
330
27F
100
AcDbEntity
  8
A
  6
MOYEN
 62
     4
100
AcDbLine
 10
0.7149967763435683
 20
-0.7701776948101121
 30
0.0
 11
-0.7149975595011604
 21
-0.7701776948101121
 31
0.0
  0
LINE
  5
292
330
27F
100
AcDbEntity
  8
A
  6
MOYEN
 62
     4
100
AcDbLine
 10
-0.7506593714049857
 20
-0.735139798454668
 30
0.0
 11
0.7506585882473935
 21
-0.735139798454668
 31
0.0
  0
LINE
  5
293
330
27F
100
AcDbEntity
  8
A
  6
MOYEN
 62
     4
100
AcDbLine
 10
0.7832007701988069
 20
-0.7001019543097299
 30
0.0
 11
-0.7832016055669051
 21
-0.7001019543097299
 31
0.0
  0
LINE
  5
294
330
27F
100
AcDbEntity
  8
A
  6
MOYEN
 62
     4
100
AcDbLine
 10
-0.8138418632006256
 20
-0.665064057954286
 30
0.0
 11
0.8138410278325274
 21
-0.665064057954286
 31
0.0
  0
LINE
  5
295
330
27F
100
AcDbEntity
  8
A
  6
MOYEN
 62
     4
100
AcDbLine
 10
0.8406447530540184
 20
-0.6300261615988419
 30
0.0
 11
-0.8406455884221166
 21
-0.6300261615988419
 31
0.0
  0
LINE
  5
296
330
27F
100
AcDbEntity
  8
A
  6
MOYEN
 62
     4
100
AcDbLine
 10
-0.8659802666323273
 20
-0.5949883174539039
 30
0.0
 11
0.865979431264229
 21
-0.5949883174539039
 31
0.0
  0
LINE
  5
297
330
27F
100
AcDbEntity
  8
A
  6
MOYEN
 62
     4
100
AcDbLine
 10
0.8890571015044841
 20
-0.5599504210984599
 30
0.0
 11
-0.8890578324515701
 21
-0.5599504210984599
 31
0.0
  0
LINE
  5
298
330
27F
100
AcDbEntity
  8
A
  6
MOYEN
 62
     4
100
AcDbLine
 10
-0.9100109527759485
 20
-0.5249125769535219
 30
0.0
 11
0.9100101174078504
 21
-0.5249125769535219
 31
0.0
  0
LINE
  5
299
330
27F
100
AcDbEntity
  8
A
  6
MOYEN
 62
     4
100
AcDbLine
 10
0.9296932693808628
 20
-0.4898746805980779
 30
0.0
 11
-0.9296941047489612
 21
-0.4898746805980779
 31
0.0
  0
LINE
  5
29A
330
27F
100
AcDbEntity
  8
A
  6
MOYEN
 62
     4
100
AcDbLine
 10
-0.9469325519824424
 20
-0.4548367842426337
 30
0.0
 11
0.9469318210353565
 21
-0.4548367842426337
 31
0.0
  0
LINE
  5
29B
330
27F
100
AcDbEntity
  8
A
  6
MOYEN
 62
     4
100
AcDbLine
 10
0.9634798365356331
 20
-0.4197989400976958
 30
0.0
 11
-0.9634805674827191
 21
-0.4197989400976958
 31
0.0
  0
LINE
  5
29C
330
27F
100
AcDbEntity
  8
A
  6
MOYEN
 62
     4
100
AcDbLine
 10
-0.9774918833316448
 20
-0.3847610437422517
 30
0.0
 11
0.9774911523845586
 21
-0.3847610437422517
 31
0.0
  0
LINE
  5
29D
330
27F
100
AcDbEntity
  8
A
  6
MOYEN
 62
     4
100
AcDbLine
 10
0.9911067125969381
 20
-0.3497231734920607
 30
0.0
 11
-0.9911075479650364
 21
-0.3497231734920607
 31
0.0
  0
LINE
  5
29E
330
27F
100
AcDbEntity
  8
A
  6
MOYEN
 62
     4
100
AcDbLine
 10
-1.002249061133432
 20
-0.3146853032418697
 30
0.0
 11
1.002248225765334
 21
-0.3146853032418697
 31
0.0
  0
LINE
  5
29F
330
27F
100
AcDbEntity
  8
A
  6
MOYEN
 62
     4
100
AcDbLine
 10
1.013088275471276
 20
-0.2796474068864256
 30
0.0
 11
-1.013089006418362
 21
-0.2796474068864256
 31
0.0
  0
LINE
  5
2A0
330
27F
100
AcDbEntity
  8
A
  6
MOYEN
 62
     4
100
AcDbLine
 10
-1.021621769436932
 20
-0.2446095366362346
 30
0.0
 11
1.021620934068834
 21
-0.2446095366362346
 31
0.0
  0
LINE
  5
2A1
330
27F
100
AcDbEntity
  8
A
  6
MOYEN
 62
     4
100
AcDbLine
 10
1.029804095538288
 20
-0.2095716663860436
 30
0.0
 11
-1.029805035327399
 21
-0.2095716663860436
 31
0.0
  0
LINE
  5
2A2
330
27F
100
AcDbEntity
  8
A
  6
MOYEN
 62
     4
100
AcDbLine
 10
-1.035915335282055
 20
-0.1745337961358526
 30
0.0
 11
1.035914395492945
 21
-0.1745337961358526
 31
0.0
  0
LINE
  5
2A3
330
27F
100
AcDbEntity
  8
A
  6
MOYEN
 62
     4
100
AcDbLine
 10
1.041527233745093
 20
-0.1394959128330351
 30
0.0
 11
-1.041528173534204
 21
-0.1394959128330351
 31
0.0
  0
LINE
  5
2A4
330
27F
100
AcDbEntity
  8
A
  6
MOYEN
 62
     4
100
AcDbLine
 10
-1.045342673112841
 20
-0.1044580360565308
 30
0.0
 11
1.045341837744742
 21
-0.1044580360565308
 31
0.0
  0
LINE
  5
2A5
330
27F
100
AcDbEntity
  8
A
  6
MOYEN
 62
     4
100
AcDbLine
 10
1.048441888757353
 20
-0.0694201592800265
 30
0.0
 11
-1.048442724125451
 21
-0.0694201592800265
 31
0.0
  0
LINE
  5
2A6
330
27F
100
AcDbEntity
  8
A
  6
MOYEN
 62
     4
100
AcDbLine
 10
-1.050037963930072
 20
-0.0343822825035223
 30
0.0
 11
1.050037024140962
 21
-0.0343822825035223
 31
0.0
  0
LINE
  5
2A7
330
27F
100
AcDbEntity
  8
A
  6
MOYEN
 62
     4
100
AcDbLine
 10
1.050655405375692
 20
0.000655594272982
 30
0.0
 11
-1.050656449585815
 21
0.000655594272982
 31
0.0
  0
LINE
  5
2A8
330
27F
100
AcDbEntity
  8
A
  6
MOYEN
 62
     4
100
AcDbLine
 10
-1.050063755920107
 20
0.0356934710494863
 30
0.0
 11
1.050062711709983
 21
0.0356934710494863
 31
0.0
  0
LINE
  5
2A9
330
27F
100
AcDbEntity
  8
A
  6
MOYEN
 62
     4
100
AcDbLine
 10
1.048205792848583
 20
0.0707313478259906
 30
0.0
 11
-1.048206837058706
 21
0.0707313478259906
 31
0.0
  0
LINE
  5
2AA
330
27F
100
AcDbEntity
  8
A
  6
MOYEN
 62
     4
100
AcDbLine
 10
-1.045415350137389
 20
0.1057692246024948
 30
0.0
 11
1.045414201506253
 21
0.1057692246024948
 31
0.0
  0
LINE
  5
2AB
330
27F
100
AcDbEntity
  8
A
  6
MOYEN
 62
     4
100
AcDbLine
 10
1.041063291187527
 20
0.1408071013789991
 30
0.0
 11
-1.041064439818661
 21
0.1408071013789991
 31
0.0
  0
LINE
  5
2AC
330
27F
100
AcDbEntity
  8
A
  6
MOYEN
 62
     4
100
AcDbLine
 10
-1.036019547452311
 20
0.1758449846818166
 30
0.0
 11
1.036018398821177
 21
0.1758449846818166
 31
0.0
  0
LINE
  5
2AD
330
27F
100
AcDbEntity
  8
A
  6
MOYEN
 62
     4
100
AcDbLine
 10
1.029129326956927
 20
0.2108828549320077
 30
0.0
 11
-1.029130475588061
 21
0.2108828549320077
 31
0.0
  0
LINE
  5
2AE
330
27F
100
AcDbEntity
  8
A
  6
MOYEN
 62
     4
100
AcDbLine
 10
-1.021730576131731
 20
0.2459207251821987
 30
0.0
 11
1.021729427500595
 21
0.2459207251821987
 31
0.0
  0
LINE
  5
2AF
330
27F
100
AcDbEntity
  8
A
  6
MOYEN
 62
     4
100
AcDbLine
 10
1.012230456855383
 20
0.2809586215376427
 30
0.0
 11
-1.012231709907531
 21
0.2809586215376427
 31
0.0
  0
LINE
  5
2B0
330
27F
100
AcDbEntity
  8
A
  6
MOYEN
 62
     4
100
AcDbLine
 10
-1.002320589526845
 20
0.3159964917878337
 30
0.0
 11
1.002319336474699
 21
0.3159964917878337
 31
0.0
  0
LINE
  5
2B1
330
27F
100
AcDbEntity
  8
A
  6
MOYEN
 62
     4
100
AcDbLine
 10
0.9901086565615527
 20
0.3510343620380247
 30
0.0
 11
-0.9901099096137004
 21
0.3510343620380247
 31
0.0
  0
LINE
  5
2B2
330
27F
100
AcDbEntity
  8
A
  6
MOYEN
 62
     4
100
AcDbLine
 10
-0.9774649427104762
 20
0.3860722322882157
 30
0.0
 11
0.9774635852373165
 21
0.3860722322882157
 31
0.0
  0
LINE
  5
2B3
330
27F
100
AcDbEntity
  8
A
  6
MOYEN
 62
     4
100
AcDbLine
 10
0.9624039868460984
 20
0.4211101025384069
 30
0.0
 11
-0.9624054487402702
 21
0.4211101025384069
 31
0.0
  0
LINE
  5
2B4
330
27F
100
AcDbEntity
  8
A
  6
MOYEN
 62
     4
100
AcDbLine
 10
-0.9467191154333391
 20
0.4561479988938509
 30
0.0
 11
0.946717653539167
 21
0.4561479988938509
 31
0.0
  0
LINE
  5
2B5
330
27F
100
AcDbEntity
  8
A
  6
MOYEN
 62
     4
100
AcDbLine
 10
0.9286306811598874
 20
0.4911858952492949
 30
0.0
 11
-0.9286321430540596
 21
0.4911858952492949
 31
0.0
  0
LINE
  5
2B6
330
27F
100
AcDbEntity
  8
A
  6
MOYEN
 62
     4
100
AcDbLine
 10
-0.909485192979112
 20
0.5262237393942329
 30
0.0
 11
0.9094836266639275
 21
0.5262237393942329
 31
0.0
  0
LINE
  5
2B7
330
27F
100
AcDbEntity
  8
A
  6
MOYEN
 62
     4
100
AcDbLine
 10
0.8881398673326046
 20
0.561261635749677
 30
0.0
 11
-0.8881413292267765
 21
0.561261635749677
 31
0.0
  0
LINE
  5
2B8
330
27F
100
AcDbEntity
  8
A
  6
MOYEN
 62
     4
100
AcDbLine
 10
-0.8649619007100532
 20
0.5962994798946149
 30
0.0
 11
0.8649602821843629
 21
0.5962994798946149
 31
0.0
  0
LINE
  5
2B9
330
27F
100
AcDbEntity
  8
A
  6
MOYEN
 62
     4
100
AcDbLine
 10
0.8400663650669921
 20
0.631337376250059
 30
0.0
 11
-0.8400679835926823
 21
0.631337376250059
 31
0.0
  0
LINE
  5
2BA
330
27F
100
AcDbEntity
  8
A
  6
MOYEN
 62
     4
100
AcDbLine
 10
-0.8120693165171495
 20
0.6663752726055029
 30
0.0
 11
0.8120674891494346
 21
0.6663752726055029
 31
0.0
  0
LINE
  5
2BB
330
27F
100
AcDbEntity
  8
A
  6
MOYEN
 62
     4
100
AcDbLine
 10
0.7825617136036449
 20
0.701413116750441
 30
0.0
 11
-0.7825637498133844
 21
0.701413116750441
 31
0.0
  0
LINE
  5
2BC
330
27F
100
AcDbEntity
  8
A
  6
MOYEN
 62
     4
100
AcDbLine
 10
-0.7493336944435676
 20
0.736451013105885
 30
0.0
 11
0.749331606023322
 21
0.736451013105885
 31
0.0
  0
LINE
  5
2BD
330
27F
100
AcDbEntity
  8
A
  6
MOYEN
 62
     4
100
AcDbLine
 10
0.7129779527026266
 20
0.771488857250823
 30
0.0
 11
-0.7129802499648968
 21
0.771488857250823
 31
0.0
  0
LINE
  5
2BE
330
27F
100
AcDbEntity
  8
A
  6
MOYEN
 62
     4
100
AcDbLine
 10
-0.6735903990806023
 20
0.8065267536062671
 30
0.0
 11
0.6735877885552953
 21
0.8065267536062671
 31
0.0
  0
LINE
  5
2BF
330
27F
100
AcDbEntity
  8
A
  6
MOYEN
 62
     4
100
AcDbLine
 10
0.6294237045684845
 20
0.841564649961711
 30
0.0
 11
-0.6294263150937916
 21
0.841564649961711
 31
0.0
  0
LINE
  5
2C0
330
27F
100
AcDbEntity
  8
A
  6
MOYEN
 62
     4
100
AcDbLine
 10
-0.5791126166412007
 20
0.876602494106649
 30
0.0
 11
0.5791096928528568
 21
0.876602494106649
 31
0.0
  0
LINE
  5
2C1
330
27F
100
AcDbEntity
  8
A
  6
MOYEN
 62
     4
100
AcDbLine
 10
0.5220324365927774
 20
0.9116403382515869
 30
0.0
 11
-0.522035673644158
 21
0.9116403382515869
 31
0.0
  0
LINE
  5
2C2
330
27F
100
AcDbEntity
  8
A
  6
MOYEN
 62
     4
100
AcDbLine
 10
-0.455447751585492
 20
0.9466782868175371
 30
0.0
 11
0.4554439402185437
 21
0.9466782868175371
 31
0.0
  0
LINE
  5
2C3
330
27F
100
AcDbEntity
  8
A
  6
MOYEN
 62
     4
100
AcDbLine
 10
0.3746494350179859
 20
0.9817161309624752
 30
0.0
 11
-0.3746541600687916
 21
0.9817161309624752
 31
0.0
  0
LINE
  5
2C4
330
27F
100
AcDbEntity
  8
A
  6
MOYEN
 62
     4
100
AcDbLine
 10
-0.2641558448726524
 20
1.016753975107412
 30
0.0
 11
0.2641483787702743
 21
1.016753975107412
 31
0.0
  0
ENDBLK
  5
2C6
330
27F
100
AcDbEntity
  8
0
100
AcDbBlockEnd
  0
BLOCK
  5
2DD
330
2CB
100
AcDbEntity
  8
0
100
AcDbBlockBegin
  2
H10C0N_H01_0_3_1
 70
     2
 10
0.0
 20
0.0
 30
0.0
  3
H10C0N_H01_0_3_1
  1

  0
ATTDEF
  5
2CC
330
2CB
100
AcDbEntity
  8
A
  6
FIN
 62
     3
100
AcDbText
 10
-3.503787755966186
 20
-4.200791374154674
 30
0.0
 40
2.094764536959783
  1

 41
0.9200000000000001
  7
ARIAL
 72
     2
 11
-3.503787755966186
 21
-3.153409105674783
 31
0.0
100
AcDbAttributeDefinition
  3

  2
$NOMCOMP
 70
     0
 74
     2
  0
ATTDEF
  5
2CD
330
2CB
100
AcDbEntity
  8
A
  6
FIN
 62
     3
100
AcDbText
 10
-3.503787755966186
 20
1.696834356103624
 30
0.0
 40
1.86201292174203
  1

 41
0.9200000000000001
  7
ARIAL
 72
     2
 11
-3.503787755966186
 21
2.62784081697464
 31
0.0
100
AcDbAttributeDefinition
  3

  2
$FONCTION
 70
     0
 74
     2
  0
ATTDEF
  5
2CE
330
2CB
100
AcDbEntity
  8
A
  6
FIN
 62
     1
100
AcDbText
 10
-5.25568163394928
 20
-9.574100043177605
 30
0.0
 40
1.629261306524276
  1

 41
0.9200000000000001
  7
ARIAL
 72
     2
 11
-5.25568163394928
 21
-8.759469389915466
 31
0.0
100
AcDbAttributeDefinition
  3

  2
UE
 70
     0
 74
     2
  0
ATTDEF
  5
2CF
330
2CB
100
AcDbEntity
  8
A
  6
FIN
 62
     1
100
AcDbText
 10
0.8759469389915466
 20
-0.2308745651785695
 30
0.0
 40
1.512885498915399
  1

 41
0.9200000000000001
  7
ARIAL
 11
0.8759469389915466
 21
0.5255681842791305
 31
0.0
100
AcDbAttributeDefinition
  3

  2
$PL:1
 70
     0
 74
     2
  0
ATTDEF
  5
2D0
330
2CB
100
AcDbEntity
  8
A
  6
FIN
 62
     1
100
AcDbText
 10
0.8759469389915466
 20
-8.114397538207549
 30
0.0
 40
1.512885498915399
  1

 41
0.9200000000000001
  7
ARIAL
 11
0.8759469389915466
 21
-7.35795478874985
 31
0.0
100
AcDbAttributeDefinition
  3

  2
$PL:2
 70
     0
 74
     2
  0
ATTDEF
  5
2D1
330
2CB
100
AcDbEntity
  8
A
  6
FIN
 62
     3
100
AcDbText
 10
-3.503787755966186
 20
-0.9310064608710154
 30
0.0
 40
1.86201292174203
  1

 41
0.9200000000000001
  7
ARIAL
 72
     2
 11
-3.503787755966186
 21
0.0
 31
0.0
100
AcDbAttributeDefinition
  3

  2
$LOCALISATION
 70
     0
 74
     2
  0
ATTDEF
  5
2D2
330
2CB
100
AcDbEntity
  8
A
  6
FIN
 62
     4
100
AcDbText
 10
-3.503787755966186
 20
-9.574100043177605
 30
0.0
 40
1.629261306524276
  1

 41
0.9200000000000001
  7
ARIAL
 72
     2
 11
-3.503787755966186
 21
-8.759469389915466
 31
0.0
100
AcDbAttributeDefinition
  3

  2
UNITE_UE
 70
     0
 74
     2
  0
ATTDEF
  5
2D3
330
2CB
100
AcDbEntity
  8
A
  6
FIN
 62
     1
100
AcDbText
 10
-3.503787755966186
 20
-6.946259226202965
 30
0.0
 40
1.629261306524276
  1

 41
0.9200000000000001
  7
ARIAL
 72
     2
 11
-3.503787755966186
 21
-6.131628572940826
 31
0.0
100
AcDbAttributeDefinition
  3

  2
COULEUR
 70
     0
 74
     2
  0
ATTDEF
  5
2D4
330
2CB
100
AcDbEntity
  8
A
  6
FIN
 62
     4
100
AcDbText
 10
-3.503787755966186
 20
-12.20194086015224
 30
0.0
 40
1.629261306524276
  1

 41
0.9200000000000001
  7
ARIAL
 72
     2
 11
-3.503787755966186
 21
-11.3873102068901
 31
0.0
100
AcDbAttributeDefinition
  3

  2
TYPE
 70
     0
 74
     2
  0
ATTDEF
  5
2D5
330
2CB
100
AcDbEntity
  8
A
  6
FIN
 62
     4
100
AcDbText
 10
3.503787755966186
 20
-4.14322897966161
 30
0.0
 40
1.629261306524276
  1

 41
0.9200000000000001
  7
ARIAL
 11
3.503787755966186
 21
-3.328598326399471
 31
0.0
100
AcDbAttributeDefinition
  3

  2
TEXTE_ETIQUETTE
 70
     0
 74
     2
  0
ATTDEF
  5
2D6
330
2CB
100
AcDbEntity
  8
A
  6
FIN
 62
     1
100
AcDbText
 10
-6.657202082691582
 20
-12.90268771863382
 30
0.0
 40
1.629261306524276
  1

 41
0.9200000000000001
  7
ARIAL
 72
     2
 11
-6.657202082691582
 21
-12.08805706537169
 31
0.0
100
AcDbAttributeDefinition
  3

  2
$POS_REFCRO_1
 70
     0
 74
     2
  0
ATTDEF
  5
2D7
330
2CB
100
AcDbEntity
  8
A
  6
FIN
 62
     4
100
AcDbText
 10
-7.357948941173162
 20
-14.54069780183635
 30
0.0
 40
1.629261306524276
  1

 41
0.9200000000000001
  7
ARIAL
 72
     4
 11
-7.357948941173162
 21
-14.54069780183635
 31
0.0
100
AcDbAttributeDefinition
  3

  2
$INTER_CROREF_1
 70
     0
 74
     2
  0
LINE
  5
2D8
330
2CB
100
AcDbEntity
  8
A
  6
SYMBOL_C
 62
     4
100
AcDbLine
 10
-1.716855929417143
 20
-1.751893877983093
 30
0.0
 11
1.681818085272205
 21
-5.290719478094217
 31
0.0
  0
LINE
  5
2D9
330
2CB
100
AcDbEntity
  8
A
  6
MOYEN
 62
     4
100
AcDbLine
 10
0.0
 20
0.0
 30
0.0
 11
0.0
 21
-1.051136159716236
 31
0.0
  0
LINE
  5
2DA
330
2CB
100
AcDbEntity
  8
A
  6
MOYEN
 62
     4
100
AcDbLine
 10
0.0
 20
-5.956439352216137
 30
0.0
 11
0.0
 21
-7.007575511932372
 31
0.0
  0
CIRCLE
  5
2DB
330
2CB
100
AcDbEntity
  8
A
  6
SYMBOL_C
 62
     4
100
AcDbCircle
 10
0.0
 20
-3.503787755966186
 30
0.0
 40
2.45265159624995
  0
LINE
  5
2DC
330
2CB
100
AcDbEntity
  8
A
  6
SYMBOL_C
 62
     4
100
AcDbLine
 10
1.716855929417143
 20
-1.751893877983093
 30
0.0
 11
-1.681818085272205
 21
-5.290719478094217
 31
0.0
  0
ENDBLK
  5
2DE
330
2CB
100
AcDbEntity
  8
0
100
AcDbBlockEnd
  0
BLOCK
  5
35D
330
2E7
100
AcDbEntity
  8
0
100
AcDbBlockBegin
  2
_I452_KNX_0_3_1
 70
     2
 10
0.0
 20
0.0
 30
0.0
  3
_I452_KNX_0_3_1
  1

  0
ATTDEF
  5
2E8
330
2E7
100
AcDbEntity
  8
A
  6
FIN
 62
     3
100
AcDbText
 10
-8.759469389915466
 20
-11.55874553637845
 30
0.0
 40
2.094764536959783
  1

 41
0.9200000000000001
  7
ARIAL
 72
     2
 11
-8.759469389915466
 21
-10.51136326789856
 31
0.0
100
AcDbAttributeDefinition
  3

  2
$ETIQUETTE
 70
     0
 74
     2
  0
ATTDEF
  5
2E9
330
2E7
100
AcDbEntity
  8
A
  6
FIN
 62
     3
100
AcDbText
 10
-8.759469389915466
 20
-8.288962084988964
 30
0.0
 40
1.86201292174203
  1

 41
0.9200000000000001
  7
ARIAL
 72
     2
 11
-8.759469389915466
 21
-7.357955624117948
 31
0.0
100
AcDbAttributeDefinition
  3

  2
$LOCALISATION
 70
     0
 74
     2
  0
ATTDEF
  5
2EA
330
2E7
100
AcDbEntity
  8
A
  6
FIN
 62
     3
100
AcDbText
 10
-8.759469389915466
 20
-5.485927870449143
 30
0.0
 40
1.86201292174203
  1

 41
0.9200000000000001
  7
ARIAL
 72
     2
 11
-8.759469389915466
 21
-4.554921409578128
 31
0.0
100
AcDbAttributeDefinition
  3

  2
$FONCTION
 70
     0
 74
     2
  0
ATTDEF
  5
2EB
330
2E7
100
AcDbEntity
  8
A
  6
FIN
 62
     1
100
AcDbText
 10
-8.759469389915466
 20
-19.73508319889059
 30
0.0
 40
1.629261306524276
  1

 41
0.9200000000000001
  7
ARIAL
 72
     2
 11
-8.759469389915466
 21
-18.92045254562845
 31
0.0
100
AcDbAttributeDefinition
  3

  2
$POS_REFCRO_1
 70
     0
 74
     2
  0
ATTDEF
  5
2EC
330
2E7
100
AcDbEntity
  8
A
  6
FIN
 62
     1
100
AcDbText
 10
-8.759469389915466
 20
-16.93204898435077
 30
0.0
 40
1.629261306524276
  1

 41
0.9200000000000001
  7
ARIAL
 72
     2
 11
-8.759469389915466
 21
-16.11741833108863
 31
0.0
100
AcDbAttributeDefinition
  3

  2
CODE
 70
     0
 74
     2
  0
ATTDEF
  5
2ED
330
2E7
100
AcDbEntity
  8
A
  6
FIN
 62
     1
100
AcDbText
 10
-8.759471060651662
 20
-22.18773061830005
 30
0.0
 40
1.629261306524276
  1

 41
0.9200000000000001
  7
ARIAL
 72
     2
 11
-8.759471060651662
 21
-21.37309996503791
 31
0.0
100
AcDbAttributeDefinition
  3

  2
SYMBOLE
 70
     0
 74
     2
  0
ATTDEF
  5
2EE
330
2E7
100
AcDbEntity
  8
A
  6
FIN
 62
     1
100
AcDbText
 10
-8.759469389915466
 20
-14.4794015649413
 30
0.0
 40
1.629261306524276
  1

 41
0.9200000000000001
  7
ARIAL
 72
     2
 11
-8.759469389915466
 21
-13.66477091167917
 31
0.0
100
AcDbAttributeDefinition
  3

  2
FABRICANT
 70
     0
 74
     2
  0
ATTDEF
  5
2EF
330
2E7
100
AcDbEntity
  8
A
  6
FIN
 62
     1
100
AcDbText
 10
-8.75946270697068
 20
-24.64038472065428
 30
0.0
 40
1.629261306524276
  1

 41
0.9200000000000001
  7
ARIAL
 72
     2
 11
-8.75946270697068
 21
-23.82575406739215
 31
0.0
100
AcDbAttributeDefinition
  3

  2
SERIE
 70
     0
 74
     2
  0
ATTDEF
  5
2F0
330
2E7
100
AcDbEntity
  8
A
  6
FIN
 62
     1
100
AcDbText
 10
0.0
 20
-2.452651387407925
 30
0.0
 40
1.512885498915399
  1

 41
0.9200000000000001
  7
ARIAL
 72
     4
 11
0.0
 21
-2.452651387407925
 31
0.0
100
AcDbAttributeDefinition
  3

  2
$PL:1
 70
     0
 74
     2
  0
ATTDEF
  5
2F1
330
2E7
100
AcDbEntity
  8
A
  6
FIN
 62
     1
100
AcDbText
 10
98.10605716705323
 20
-2.45265159624995
 30
0.0
 40
1.512885498915399
  1

 41
0.9200000000000001
  7
ARIAL
 72
     4
 11
98.10605716705323
 21
-2.45265159624995
 31
0.0
100
AcDbAttributeDefinition
  3

  2
$PL:2
 70
     0
 74
     2
  0
ATTDEF
  5
2F2
330
2E7
100
AcDbEntity
  8
A
  6
FIN
 62
     1
100
AcDbText
 10
7.007575511932372
 20
-2.45265159624995
 30
0.0
 40
1.512885498915399
  1

 41
0.9200000000000001
  7
ARIAL
 72
     4
 11
7.007575511932372
 21
-2.45265159624995
 31
0.0
100
AcDbAttributeDefinition
  3

  2
$PL:3
 70
     0
 74
     2
  0
ATTDEF
  5
2F3
330
2E7
100
AcDbEntity
  8
A
  6
FIN
 62
     1
100
AcDbText
 10
14.71590957749969
 20
-3.209093928023601
 30
0.0
 40
1.512885498915399
  1

 41
0.9200000000000001
  7
ARIAL
 11
14.71590957749969
 21
-2.452651178565901
 31
0.0
100
AcDbAttributeDefinition
  3

  2
$PL:4
 70
     0
 74
     2
  0
ATTDEF
  5
2F4
330
2E7
100
AcDbEntity
  8
A
  6
FIN
 62
     1
100
AcDbText
 10
28.73106227210064
 20
-3.209093928023601
 30
0.0
 40
1.512885498915399
  1

 41
0.9200000000000001
  7
ARIAL
 11
28.73106227210064
 21
-2.452651178565901
 31
0.0
100
AcDbAttributeDefinition
  3

  2
$PL:5
 70
     0
 74
     2
  0
ATTDEF
  5
2F5
330
2E7
100
AcDbEntity
  8
A
  6
FIN
 62
     1
100
AcDbText
 10
49.75378880789776
 20
-3.209093928023601
 30
0.0
 40
1.512885498915399
  1

 41
0.9200000000000001
  7
ARIAL
 11
49.75378880789776
 21
-2.452651178565901
 31
0.0
100
AcDbAttributeDefinition
  3

  2
$PL:6
 70
     0
 74
     2
  0
ATTDEF
  5
2F6
330
2E7
100
AcDbEntity
  8
A
  6
FIN
 62
     1
100
AcDbText
 10
63.7689398317625
 20
-3.209093928023601
 30
0.0
 40
1.512885498915399
  1

 41
0.9200000000000001
  7
ARIAL
 11
63.7689398317625
 21
-2.452651178565901
 31
0.0
100
AcDbAttributeDefinition
  3

  2
$PL:7
 70
     0
 74
     2
  0
ATTDEF
  5
2F7
330
2E7
100
AcDbEntity
  8
A
  6
FIN
 62
     1
100
AcDbText
 10
84.79165968461485
 20
-3.209093928023601
 30
0.0
 40
1.512885498915399
  1

 41
0.9200000000000001
  7
ARIAL
 11
84.79165968461485
 21
-2.452651178565901
 31
0.0
100
AcDbAttributeDefinition
  3

  2
$PL:8
 70
     0
 74
     2
  0
ATTDEF
  5
2F8
330
2E7
100
AcDbEntity
  8
A
  6
FIN
 62
     1
100
AcDbText
 10
105.1136326789855
 20
-2.452651387407925
 30
0.0
 40
1.512885498915399
  1

 41
0.9200000000000001
  7
ARIAL
 72
     4
 11
105.1136326789855
 21
-2.452651387407925
 31
0.0
100
AcDbAttributeDefinition
  3

  2
$PL:9
 70
     0
 74
     2
  0
ATTDEF
  5
2F9
330
2E7
100
AcDbEntity
  8
A
  6
FIN
 62
     1
100
AcDbText
 10
112.8219550493996
 20
-3.209094136865625
 30
0.0
 40
1.512885498915399
  1

 41
0.9200000000000001
  7
ARIAL
 11
112.8219550493996
 21
-2.452651387407925
 31
0.0
100
AcDbAttributeDefinition
  3

  2
$PL:10
 70
     0
 74
     2
  0
ATTDEF
  5
2FA
330
2E7
100
AcDbEntity
  8
A
  6
FIN
 62
     1
100
AcDbText
 10
126.8371060732643
 20
-3.209094136865625
 30
0.0
 40
1.512885498915399
  1

 41
0.9200000000000001
  7
ARIAL
 11
126.8371060732643
 21
-2.452651387407925
 31
0.0
100
AcDbAttributeDefinition
  3

  2
$PL:11
 70
     0
 74
     2
  0
ATTDEF
  5
2FB
330
2E7
100
AcDbEntity
  8
A
  6
FIN
 62
     1
100
AcDbText
 10
147.8598326090614
 20
-3.209094136865625
 30
0.0
 40
1.512885498915399
  1

 41
0.9200000000000001
  7
ARIAL
 11
147.8598326090614
 21
-2.452651387407925
 31
0.0
100
AcDbAttributeDefinition
  3

  2
$PL:12
 70
     0
 74
     2
  0
ATTDEF
  5
2FC
330
2E7
100
AcDbEntity
  8
A
  6
FIN
 62
     1
100
AcDbText
 10
0.0
 20
-24.87689273321269
 30
0.0
 40
1.512885498915399
  1

 41
0.9200000000000001
  7
ARIAL
 72
     4
 11
0.0
 21
-24.87689273321269
 31
0.0
100
AcDbAttributeDefinition
  3

  2
$PL:25
 70
     0
 74
     2
  0
ATTDEF
  5
2FD
330
2E7
100
AcDbEntity
  8
A
  6
FIN
 62
     1
100
AcDbText
 10
7.007575511932372
 20
-24.87689273321269
 30
0.0
 40
1.512885498915399
  1

 41
0.9200000000000001
  7
ARIAL
 72
     4
 11
7.007575511932372
 21
-24.87689273321269
 31
0.0
100
AcDbAttributeDefinition
  3

  2
$PL:26
 70
     0
 74
     2
  0
ATTDEF
  5
2FE
330
2E7
100
AcDbEntity
  8
A
  6
FIN
 62
     1
100
AcDbText
 10
14.01515102386475
 20
-24.87689273321269
 30
0.0
 40
1.512885498915399
  1

 41
0.9200000000000001
  7
ARIAL
 72
     4
 11
14.01515102386475
 21
-24.87689273321269
 31
0.0
100
AcDbAttributeDefinition
  3

  2
$PL:27
 70
     0
 74
     2
  0
ATTDEF
  5
2FF
330
2E7
100
AcDbEntity
  8
A
  6
FIN
 62
     1
100
AcDbText
 10
21.02272653579712
 20
-24.87689273321269
 30
0.0
 40
1.512885498915399
  1

 41
0.9200000000000001
  7
ARIAL
 72
     4
 11
21.02272653579712
 21
-24.87689273321269
 31
0.0
100
AcDbAttributeDefinition
  3

  2
$PL:28
 70
     0
 74
     2
  0
ATTDEF
  5
300
330
2E7
100
AcDbEntity
  8
A
  6
FIN
 62
     1
100
AcDbText
 10
182.8977235346129
 20
-3.209094136865625
 30
0.0
 40
1.512885498915399
  1

 41
0.9200000000000001
  7
ARIAL
 11
182.8977235346129
 21
-2.452651387407925
 31
0.0
100
AcDbAttributeDefinition
  3

  2
$PL:14
 70
     0
 74
     2
  0
ATTDEF
  5
301
330
2E7
100
AcDbEntity
  8
A
  6
FIN
 62
     1
100
AcDbText
 10
161.8749836329261
 20
-3.209094136865625
 30
0.0
 40
1.512885498915399
  1

 41
0.9200000000000001
  7
ARIAL
 11
161.8749836329261
 21
-2.452651387407925
 31
0.0
100
AcDbAttributeDefinition
  3

  2
$PL:13
 70
     0
 74
     2
  0
LWPOLYLINE
  5
302
330
2E7
100
AcDbEntity
  8
A
  6
FIN
 62
     7
100
AcDbPolyline
 90
        5
 70
     0
 43
0.0
 10
-7.007575511932372
 20
0.0
 10
192.7083265781402
 20
0.0
 10
192.7083265781402
 20
-28.03030204772948
 10
-7.007575511932372
 20
-28.03030204772948
 10
-7.007575511932372
 20
0.0
  0
CIRCLE
  5
309
330
2E7
100
AcDbEntity
  8
A
  6
SYMBOL_C
 62
     4
100
AcDbCircle
 10
14.01515102386475
 20
-0.7007568828987587
 30
0.0
 40
0.7007568828987587
  0
CIRCLE
  5
30A
330
2E7
100
AcDbEntity
  8
A
  6
SYMBOL_C
 62
     4
100
AcDbCircle
 10
28.03030204772948
 20
-0.7007568828987587
 30
0.0
 40
0.7007568828987587
  0
CIRCLE
  5
30B
330
2E7
100
AcDbEntity
  8
A
  6
SYMBOL_C
 62
     4
100
AcDbCircle
 10
49.05302858352661
 20
-0.7007568828987587
 30
0.0
 40
0.7007568828987587
  0
CIRCLE
  5
30C
330
2E7
100
AcDbEntity
  8
A
  6
SYMBOL_C
 62
     4
100
AcDbCircle
 10
84.09090614318849
 20
-0.7007568828987587
 30
0.0
 40
0.7007568828987587
  0
CIRCLE
  5
30D
330
2E7
100
AcDbEntity
  8
A
  6
SYMBOL_C
 62
     4
100
AcDbCircle
 10
63.06817960739135
 20
-0.7007568828987587
 30
0.0
 40
0.7007568828987587
  0
CIRCLE
  5
30E
330
2E7
100
AcDbEntity
  8
A
  6
SYMBOL_C
 62
     4
100
AcDbCircle
 10
105.1136326789855
 20
-0.7007568828987587
 30
0.0
 40
0.7007568828987587
  0
CIRCLE
  5
30F
330
2E7
100
AcDbEntity
  8
A
  6
SYMBOL_C
 62
     4
100
AcDbCircle
 10
147.1590857505798
 20
-0.7007568828987587
 30
0.0
 40
0.7007568828987587
  0
CIRCLE
  5
310
330
2E7
100
AcDbEntity
  8
A
  6
SYMBOL_C
 62
     4
100
AcDbCircle
 10
112.121208190918
 20
-0.7007568828987587
 30
0.0
 40
0.7007568828987587
  0
CIRCLE
  5
311
330
2E7
100
AcDbEntity
  8
A
  6
SYMBOL_C
 62
     4
100
AcDbCircle
 10
126.1363592147827
 20
-0.7007568828987587
 30
0.0
 40
0.7007568828987587
  0
CIRCLE
  5
312
330
2E7
100
AcDbEntity
  8
A
  6
SYMBOL_C
 62
     4
100
AcDbCircle
 10
0.0
 20
-27.32954516483073
 30
0.0
 40
0.7007568828987587
  0
CIRCLE
  5
313
330
2E7
100
AcDbEntity
  8
A
  6
SYMBOL_C
 62
     4
100
AcDbCircle
 10
7.007575511932372
 20
-27.32954516483073
 30
0.0
 40
0.7007568828987587
  0
CIRCLE
  5
314
330
2E7
100
AcDbEntity
  8
A
  6
SYMBOL_C
 62
     4
100
AcDbCircle
 10
14.01515102386475
 20
-27.32954516483073
 30
0.0
 40
0.7007568828987587
  0
CIRCLE
  5
315
330
2E7
100
AcDbEntity
  8
A
  6
SYMBOL_C
 62
     4
100
AcDbCircle
 10
21.02272653579712
 20
-27.32954516483073
 30
0.0
 40
0.7007568828987587
  0
CIRCLE
  5
316
330
2E7
100
AcDbEntity
  8
A
  6
SYMBOL_C
 62
     4
100
AcDbCircle
 10
0.0
 20
-0.7007568828987587
 30
0.0
 40
0.7007568828987587
  0
CIRCLE
  5
317
330
2E7
100
AcDbEntity
  8
A
  6
SYMBOL_C
 62
     4
100
AcDbCircle
 10
98.10605716705323
 20
-0.7007568828987587
 30
0.0
 40
0.7007568828987587
  0
CIRCLE
  5
318
330
2E7
100
AcDbEntity
  8
A
  6
SYMBOL_C
 62
     4
100
AcDbCircle
 10
7.007575511932372
 20
-0.7007568828987587
 30
0.0
 40
0.7007568828987587
  0
LINE
  5
319
330
2E7
100
AcDbEntity
  8
A
  6
FIN
 62
     7
100
AcDbLine
 10
0.0
 20
-21.02272653579712
 30
0.0
 11
21.02272653579712
 21
-21.02272653579712
 31
0.0
  0
CIRCLE
  5
31A
330
2E7
100
AcDbEntity
  8
A
  6
SYMBOL_C
 62
     4
100
AcDbCircle
 10
182.1969633102417
 20
-0.7007568828987587
 30
0.0
 40
0.7007568828987587
  0
CIRCLE
  5
31B
330
2E7
100
AcDbEntity
  8
A
  6
SYMBOL_C
 62
     4
100
AcDbCircle
 10
161.1742367744446
 20
-0.7007568828987587
 30
0.0
 40
0.7007568828987587
  0
LINE
  5
31C
330
2E7
100
AcDbEntity
  8
A
  6
MOYEN
 62
     4
100
AcDbLine
 10
23.73815402713717
 20
-10.51136410326666
 30
0.0
 11
27.41713852214092
 21
-12.35085133855994
 31
0.0
  0
LINE
  5
31D
330
2E7
100
AcDbEntity
  8
A
  6
MOYEN
 62
     4
100
AcDbLine
 10
28.03030204772948
 20
-10.51136410326666
 30
0.0
 11
26.80396831360758
 21
-10.51136410326666
 31
0.0
  0
LINE
  5
31E
330
2E7
100
AcDbEntity
  8
A
  6
MOYEN
 62
     4
100
AcDbLine
 10
23.12500052596579
 20
-10.51136410326666
 30
0.0
 11
23.73815402713717
 21
-10.51136410326666
 31
0.0
  0
LINE
  5
31F
330
2E7
100
AcDbEntity
  8
A
  6
MOYEN
 62
     4
100
AcDbLine
 10
26.80396831360758
 20
-11.73768781297139
 30
0.0
 11
26.80396831360758
 21
-12.9640148641485
 31
0.0
  0
LINE
  5
320
330
2E7
100
AcDbEntity
  8
A
  6
MOYEN
 62
     4
100
AcDbLine
 10
28.03030204772948
 20
-12.9640148641485
 30
0.0
 11
26.80396831360758
 21
-12.9640148641485
 31
0.0
  0
LINE
  5
321
330
2E7
100
AcDbEntity
  8
A
  6
MOYEN
 62
     4
100
AcDbLine
 10
44.76089058735147
 20
-12.9640148641485
 30
0.0
 11
48.43986505793805
 21
-14.80350126407369
 31
0.0
  0
LINE
  5
322
330
2E7
100
AcDbEntity
  8
A
  6
MOYEN
 62
     4
100
AcDbLine
 10
49.05302858352661
 20
-12.9640148641485
 30
0.0
 11
48.43986505793805
 21
-12.9640148641485
 31
0.0
  0
LINE
  5
323
330
2E7
100
AcDbEntity
  8
A
  6
MOYEN
 62
     4
100
AcDbLine
 10
44.1477270617629
 20
-12.9640148641485
 30
0.0
 11
44.76089058735147
 21
-12.9640148641485
 31
0.0
  0
LINE
  5
324
330
2E7
100
AcDbEntity
  8
A
  6
MOYEN
 62
     4
100
AcDbLine
 10
28.03030204772948
 20
-12.9640148641485
 30
0.0
 11
44.1477270617629
 21
-12.9640148641485
 31
0.0
  0
LINE
  5
325
330
2E7
100
AcDbEntity
  8
A
  6
MOYEN
 62
     4
100
AcDbLine
 10
49.05302858352661
 20
-12.9640148641485
 30
0.0
 11
49.05302858352661
 21
-1.401515123270677
 31
0.0
  0
LINE
  5
326
330
2E7
100
AcDbEntity
  8
A
  6
MOYEN
 62
     4
100
AcDbLine
 10
28.03030204772948
 20
-10.51136326789856
 30
0.0
 11
28.03030204772948
 21
-1.401515123270677
 31
0.0
  0
LINE
  5
327
330
2E7
100
AcDbEntity
  8
A
  6
MOYEN
 62
     4
100
AcDbLine
 10
23.12500052596579
 20
-10.51136326789856
 30
0.0
 11
14.01515102386475
 21
-10.51136326789856
 31
0.0
  0
LINE
  5
328
330
2E7
100
AcDbEntity
  8
A
  6
MOYEN
 62
     4
100
AcDbLine
 10
14.01515102386475
 20
-10.51136326789856
 30
0.0
 11
14.01515102386475
 21
-7.007575511932372
 31
0.0
  0
LINE
  5
329
330
2E7
100
AcDbEntity
  8
A
  6
MOYEN
 62
     4
100
AcDbLine
 10
58.77603158679904
 20
-10.51136410326666
 30
0.0
 11
62.45501942327518
 21
-12.35085133855994
 31
0.0
  0
LINE
  5
32A
330
2E7
100
AcDbEntity
  8
A
  6
MOYEN
 62
     4
100
AcDbLine
 10
121.8442111941903
 20
-10.51136410326666
 30
0.0
 11
125.5231990306665
 21
-12.35085133855994
 31
0.0
  0
LINE
  5
32B
330
2E7
100
AcDbEntity
  8
A
  6
MOYEN
 62
     4
100
AcDbLine
 10
156.8820887538523
 20
-10.51136410326666
 30
0.0
 11
160.5610765903284
 21
-12.35085133855994
 31
0.0
  0
LINE
  5
32C
330
2E7
100
AcDbEntity
  8
A
  6
MOYEN
 62
     4
100
AcDbLine
 10
63.06817960739135
 20
-10.51136410326666
 30
0.0
 11
61.84184587326946
 21
-10.51136410326666
 31
0.0
  0
LINE
  5
32D
330
2E7
100
AcDbEntity
  8
A
  6
MOYEN
 62
     4
100
AcDbLine
 10
126.1363592147827
 20
-10.51136410326666
 30
0.0
 11
124.9100254806608
 21
-10.51136410326666
 31
0.0
  0
LINE
  5
32E
330
2E7
100
AcDbEntity
  8
A
  6
MOYEN
 62
     4
100
AcDbLine
 10
161.1742367744446
 20
-10.51136410326666
 30
0.0
 11
159.9479030403226
 21
-10.51136410326666
 31
0.0
  0
LINE
  5
32F
330
2E7
100
AcDbEntity
  8
A
  6
MOYEN
 62
     4
100
AcDbLine
 10
58.16287808562766
 20
-10.51136410326666
 30
0.0
 11
58.77603158679904
 21
-10.51136410326666
 31
0.0
  0
LINE
  5
330
330
2E7
100
AcDbEntity
  8
A
  6
MOYEN
 62
     4
100
AcDbLine
 10
121.2310510100742
 20
-10.51136410326666
 30
0.0
 11
121.8442111941903
 21
-10.51136410326666
 31
0.0
  0
LINE
  5
331
330
2E7
100
AcDbEntity
  8
A
  6
MOYEN
 62
     4
100
AcDbLine
 10
156.268928569736
 20
-10.51136410326666
 30
0.0
 11
156.8820887538523
 21
-10.51136410326666
 31
0.0
  0
LINE
  5
332
330
2E7
100
AcDbEntity
  8
A
  6
MOYEN
 62
     4
100
AcDbLine
 10
61.84184587326946
 20
-11.73768781297139
 30
0.0
 11
61.84184587326946
 21
-12.9640148641485
 31
0.0
  0
LINE
  5
333
330
2E7
100
AcDbEntity
  8
A
  6
MOYEN
 62
     4
100
AcDbLine
 10
124.9100254806608
 20
-11.73768781297139
 30
0.0
 11
124.9100254806608
 21
-12.9640148641485
 31
0.0
  0
LINE
  5
334
330
2E7
100
AcDbEntity
  8
A
  6
MOYEN
 62
     4
100
AcDbLine
 10
159.9479030403226
 20
-11.73768781297139
 30
0.0
 11
159.9479030403226
 21
-12.9640148641485
 31
0.0
  0
LINE
  5
335
330
2E7
100
AcDbEntity
  8
A
  6
MOYEN
 62
     4
100
AcDbLine
 10
63.06817960739135
 20
-12.9640148641485
 30
0.0
 11
61.84184587326946
 21
-12.9640148641485
 31
0.0
  0
LINE
  5
336
330
2E7
100
AcDbEntity
  8
A
  6
MOYEN
 62
     4
100
AcDbLine
 10
126.1363592147827
 20
-12.9640148641485
 30
0.0
 11
124.9100254806608
 21
-12.9640148641485
 31
0.0
  0
LINE
  5
337
330
2E7
100
AcDbEntity
  8
A
  6
MOYEN
 62
     4
100
AcDbLine
 10
161.1742367744446
 20
-12.9640148641485
 30
0.0
 11
159.9479030403226
 21
-12.9640148641485
 31
0.0
  0
LINE
  5
338
330
2E7
100
AcDbEntity
  8
A
  6
MOYEN
 62
     4
100
AcDbLine
 10
79.79877148848574
 20
-12.9640148641485
 30
0.0
 11
83.4777459590723
 21
-14.80350126407369
 31
0.0
  0
LINE
  5
339
330
2E7
100
AcDbEntity
  8
A
  6
MOYEN
 62
     4
100
AcDbLine
 10
142.866951095877
 20
-12.9640148641485
 30
0.0
 11
146.5459255664636
 21
-14.80350126407369
 31
0.0
  0
LINE
  5
33A
330
2E7
100
AcDbEntity
  8
A
  6
MOYEN
 62
     4
100
AcDbLine
 10
177.904828655539
 20
-12.9640148641485
 30
0.0
 11
181.5838031261254
 21
-14.80350126407369
 31
0.0
  0
LINE
  5
33B
330
2E7
100
AcDbEntity
  8
A
  6
MOYEN
 62
     4
100
AcDbLine
 10
84.09090614318849
 20
-12.9640148641485
 30
0.0
 11
83.4777459590723
 21
-12.9640148641485
 31
0.0
  0
LINE
  5
33C
330
2E7
100
AcDbEntity
  8
A
  6
MOYEN
 62
     4
100
AcDbLine
 10
147.1590857505798
 20
-12.9640148641485
 30
0.0
 11
146.5459255664636
 21
-12.9640148641485
 31
0.0
  0
LINE
  5
33D
330
2E7
100
AcDbEntity
  8
A
  6
MOYEN
 62
     4
100
AcDbLine
 10
182.1969633102417
 20
-12.9640148641485
 30
0.0
 11
181.5838031261254
 21
-12.9640148641485
 31
0.0
  0
LINE
  5
33E
330
2E7
100
AcDbEntity
  8
A
  6
MOYEN
 62
     4
100
AcDbLine
 10
79.18560462142477
 20
-12.9640148641485
 30
0.0
 11
79.79877148848574
 21
-12.9640148641485
 31
0.0
  0
LINE
  5
33F
330
2E7
100
AcDbEntity
  8
A
  6
MOYEN
 62
     4
100
AcDbLine
 10
142.2537775458713
 20
-12.9640148641485
 30
0.0
 11
142.866951095877
 21
-12.9640148641485
 31
0.0
  0
LINE
  5
340
330
2E7
100
AcDbEntity
  8
A
  6
MOYEN
 62
     4
100
AcDbLine
 10
177.2916551055331
 20
-12.9640148641485
 30
0.0
 11
177.904828655539
 21
-12.9640148641485
 31
0.0
  0
LINE
  5
341
330
2E7
100
AcDbEntity
  8
A
  6
MOYEN
 62
     4
100
AcDbLine
 10
63.06817960739135
 20
-12.9640148641485
 30
0.0
 11
79.18560462142477
 21
-12.9640148641485
 31
0.0
  0
LINE
  5
342
330
2E7
100
AcDbEntity
  8
A
  6
MOYEN
 62
     4
100
AcDbLine
 10
126.1363592147827
 20
-12.9640148641485
 30
0.0
 11
142.2537909117609
 21
-12.9640148641485
 31
0.0
  0
LINE
  5
343
330
2E7
100
AcDbEntity
  8
A
  6
MOYEN
 62
     4
100
AcDbLine
 10
161.1742367744446
 20
-12.9640148641485
 30
0.0
 11
177.2916684714228
 21
-12.9640148641485
 31
0.0
  0
LINE
  5
344
330
2E7
100
AcDbEntity
  8
A
  6
MOYEN
 62
     4
100
AcDbLine
 10
84.09090614318849
 20
-12.9640148641485
 30
0.0
 11
84.09090614318849
 21
-1.401515123270677
 31
0.0
  0
LINE
  5
345
330
2E7
100
AcDbEntity
  8
A
  6
MOYEN
 62
     4
100
AcDbLine
 10
147.1590857505798
 20
-12.9640148641485
 30
0.0
 11
147.1590857505798
 21
-1.401515123270677
 31
0.0
  0
LINE
  5
346
330
2E7
100
AcDbEntity
  8
A
  6
MOYEN
 62
     4
100
AcDbLine
 10
182.1969633102417
 20
-12.9640148641485
 30
0.0
 11
182.1969633102417
 21
-1.401515123270677
 31
0.0
  0
LINE
  5
347
330
2E7
100
AcDbEntity
  8
A
  6
MOYEN
 62
     4
100
AcDbLine
 10
63.06817960739135
 20
-10.51136326789856
 30
0.0
 11
63.06817960739135
 21
-1.401515123270677
 31
0.0
  0
LINE
  5
348
330
2E7
100
AcDbEntity
  8
A
  6
MOYEN
 62
     4
100
AcDbLine
 10
126.1363592147827
 20
-10.51136326789856
 30
0.0
 11
126.1363592147827
 21
-1.401515123270677
 31
0.0
  0
LINE
  5
349
330
2E7
100
AcDbEntity
  8
A
  6
MOYEN
 62
     4
100
AcDbLine
 10
161.1742367744446
 20
-10.51136326789856
 30
0.0
 11
161.1742367744446
 21
-1.401515123270677
 31
0.0
  0
LINE
  5
34A
330
2E7
100
AcDbEntity
  8
A
  6
MOYEN
 62
     4
100
AcDbLine
 10
58.16287808562766
 20
-10.51136326789856
 30
0.0
 11
56.06060409545897
 21
-10.51136326789856
 31
0.0
  0
LINE
  5
34B
330
2E7
100
AcDbEntity
  8
A
  6
MOYEN
 62
     4
100
AcDbLine
 10
121.2310510100742
 20
-10.51136326789856
 30
0.0
 11
112.121208190918
 21
-10.51136326789856
 31
0.0
  0
LINE
  5
34C
330
2E7
100
AcDbEntity
  8
A
  6
MOYEN
 62
     4
100
AcDbLine
 10
156.268928569736
 20
-10.51136326789856
 30
0.0
 11
154.1666612625121
 21
-10.51136326789856
 31
0.0
  0
LINE
  5
34D
330
2E7
100
AcDbEntity
  8
A
  6
MOYEN
 62
     4
100
AcDbLine
 10
56.06060409545897
 20
-10.51136326789856
 30
0.0
 11
56.06060409545897
 21
-7.007575511932372
 31
0.0
  0
LINE
  5
34E
330
2E7
100
AcDbEntity
  8
A
  6
MOYEN
 62
     4
100
AcDbLine
 10
112.121208190918
 20
-10.51136326789856
 30
0.0
 11
112.121208190918
 21
-7.007575511932372
 31
0.0
  0
LINE
  5
34F
330
2E7
100
AcDbEntity
  8
A
  6
MOYEN
 62
     4
100
AcDbLine
 10
154.1666612625121
 20
-10.51136326789856
 30
0.0
 11
154.1666612625121
 21
-7.007575511932372
 31
0.0
  0
LINE
  5
350
330
2E7
100
AcDbEntity
  8
A
  6
MOYEN
 62
     4
100
AcDbLine
 10
154.1666612625121
 20
-7.007575511932372
 30
0.0
 11
112.121208190918
 21
-7.007575511932372
 31
0.0
  0
LINE
  5
351
330
2E7
100
AcDbEntity
  8
A
  6
MOYEN
 62
     4
100
AcDbLine
 10
112.121208190918
 20
-7.007575511932372
 30
0.0
 11
112.121208190918
 21
-1.401515123270677
 31
0.0
  0
LINE
  5
352
330
2E7
100
AcDbEntity
  8
A
  6
MOYEN
 62
     4
100
AcDbLine
 10
56.06060409545897
 20
-7.007575511932372
 30
0.0
 11
14.01515102386475
 21
-7.007575511932372
 31
0.0
  0
LINE
  5
353
330
2E7
100
AcDbEntity
  8
A
  6
MOYEN
 62
     4
100
AcDbLine
 10
14.01515102386475
 20
-7.007575511932372
 30
0.0
 11
14.01515102386475
 21
-1.401515123270677
 31
0.0
  0
TEXT
  5
354
330
2E7
100
AcDbEntity
  8
A
  6
FIN
 62
     1
100
AcDbText
 10
5.710665695937786
 20
-23.54508147529466
 30
0.0
 40
1.512885498915399
  1
BK
 41
0.9200000000000001
  7
ARIAL
 72
     4
 11
7.007578018036668
 21
-22.78863872583695
 31
0.0
100
AcDbText
  0
TEXT
  5
355
330
2E7
100
AcDbEntity
  8
A
  6
FIN
 62
     1
100
AcDbText
 10
-1.404197162799595
 20
-23.54508147529466
 30
0.0
 40
1.512885498915399
  1
RD
 41
0.9200000000000001
  7
ARIAL
 72
     4
 11
0.0
 21
-22.78863872583695
 31
0.0
100
AcDbText
  0
TEXT
  5
356
330
2E7
100
AcDbEntity
  8
A
  6
FIN
 62
     1
100
AcDbText
 10
19.72581839053872
 20
-23.54508147529466
 30
0.0
 40
1.512885498915399
  1
BK
 41
0.9200000000000001
  7
ARIAL
 72
     4
 11
21.0227307126376
 21
-22.78863872583695
 31
0.0
100
AcDbText
  0
TEXT
  5
357
330
2E7
100
AcDbEntity
  8
A
  6
FIN
 62
     1
100
AcDbText
 10
12.6109534433811
 20
-23.54508147529466
 30
0.0
 40
1.512885498915399
  1
RD
 41
0.9200000000000001
  7
ARIAL
 72
     4
 11
14.01515060618069
 21
-22.78863872583695
 31
0.0
100
AcDbText
  0
TEXT
  5
358
330
2E7
100
AcDbEntity
  8
A
  6
FIN
 62
     1
100
AcDbText
 10
6.566983881251557
 20
-20.02890993625413
 30
0.0
 40
1.512885498915399
  1
Bus KNX
 41
0.9200000000000001
  7
ARIAL
 72
     4
 11
10.51136326789856
 21
-19.28485096987077
 31
0.0
100
AcDbText
  0
TEXT
  5
359
330
2E7
100
AcDbEntity
  8
A
  6
FIN
 62
     1
100
AcDbText
 10
32.97566914393673
 20
-18.63977828279476
 30
0.0
 40
1.512885498915399
  1
CHANNEL A
 41
0.9200000000000001
  7
ARIAL
 72
     4
 11
38.54166364489185
 21
-17.88333553333706
 31
0.0
100
AcDbText
  0
TEXT
  5
35A
330
2E7
100
AcDbEntity
  8
A
  6
FIN
 62
     1
100
AcDbText
 10
68.01497585086074
 20
-18.63977828279476
 30
0.0
 40
1.512885498915399
  1
CHANNEL B
 41
0.9200000000000001
  7
ARIAL
 72
     4
 11
73.57954621676231
 21
-17.88333553333706
 31
0.0
100
AcDbText
  0
TEXT
  5
35B
330
2E7
100
AcDbEntity
  8
A
  6
FIN
 62
     1
100
AcDbText
 10
131.0295096964293
 20
-18.63977828279476
 30
0.0
 40
1.512885498915399
  1
CHANNEL C
 41
0.9200000000000001
  7
ARIAL
 72
     4
 11
136.6477224826813
 21
-17.88333553333706
 31
0.0
100
AcDbText
  0
TEXT
  5
35C
330
2E7
100
AcDbEntity
  8
A
  6
FIN
 62
     1
100
AcDbText
 10
166.0673872560912
 20
-18.63977828279476
 30
0.0
 40
1.512885498915399
  1
CHANNEL D
 41
0.9200000000000001
  7
ARIAL
 72
     4
 11
171.6856000423431
 21
-17.88333553333706
 31
0.0
100
AcDbText
  0
ENDBLK
  5
35E
330
2E7
100
AcDbEntity
  8
0
100
AcDbBlockEnd
  0
BLOCK
  5
398
330
37B
100
AcDbEntity
  8
0
100
AcDbBlockBegin
  2
M04P4N_2_M01_0_3_1
 70
     2
 10
0.0
 20
0.0
 30
0.0
  3
M04P4N_2_M01_0_3_1
  1

  0
ATTDEF
  5
37C
330
37B
100
AcDbEntity
  8
A
  6
FIN
 62
     3
100
AcDbText
 10
-5.25568163394928
 20
-4.200791374154674
 30
0.0
 40
2.094764536959783
  1

 41
0.9200000000000001
  7
ARIAL
 72
     2
 11
-5.25568163394928
 21
-3.153409105674783
 31
0.0
100
AcDbAttributeDefinition
  3

  2
$REPETIQ
 70
     0
 74
     2
  0
ATTDEF
  5
37D
330
37B
100
AcDbEntity
  8
A
  6
FIN
 62
     3
100
AcDbText
 10
-5.25568163394928
 20
-0.9310064608710154
 30
0.0
 40
1.86201292174203
  1

 41
0.9200000000000001
  7
ARIAL
 72
     2
 11
-5.25568163394928
 21
0.0
 31
0.0
100
AcDbAttributeDefinition
  3

  2
$LOCATION
 70
     0
 74
     2
  0
ATTDEF
  5
37E
330
37B
100
AcDbEntity
  8
A
  6
FIN
 62
     3
100
AcDbText
 10
-5.25568163394928
 20
2.222402644803767
 30
0.0
 40
1.86201292174203
  1

 41
0.9200000000000001
  7
ARIAL
 72
     2
 11
-5.25568163394928
 21
3.153409105674783
 31
0.0
100
AcDbAttributeDefinition
  3

  2
$FUNCTION
 70
     0
 74
     2
  0
ATTDEF
  5
37F
330
37B
100
AcDbEntity
  8
A
  6
FIN
 62
     4
100
AcDbText
 10
-5.25568163394928
 20
-9.574100043177605
 30
0.0
 40
1.629261306524276
  1

 41
0.9200000000000001
  7
ARIAL
 72
     2
 11
-5.25568163394928
 21
-8.759469389915466
 31
0.0
100
AcDbAttributeDefinition
  3

  2
IN
 70
     0
 74
     2
  0
ATTDEF
  5
380
330
37B
100
AcDbEntity
  8
A
  6
FIN
 62
     4
100
AcDbText
 10
-5.25568163394928
 20
-6.946259226202965
 30
0.0
 40
1.629261306524276
  1

 41
0.9200000000000001
  7
ARIAL
 72
     2
 11
-5.25568163394928
 21
-6.131628572940826
 31
0.0
100
AcDbAttributeDefinition
  3

  2
POWER
 70
     0
 74
     2
  0
ATTDEF
  5
381
330
37B
100
AcDbEntity
  8
A
  6
FIN
 62
     4
100
AcDbText
 10
-5.25568163394928
 20
-12.20194086015224
 30
0.0
 40
1.629261306524276
  1

 41
0.9200000000000001
  7
ARIAL
 72
     2
 11
-5.25568163394928
 21
-11.3873102068901
 31
0.0
100
AcDbAttributeDefinition
  3

  2
SPEED
 70
     0
 74
     2
  0
ATTDEF
  5
382
330
37B
100
AcDbEntity
  8
A
  6
FIN
 62
     4
100
AcDbText
 10
-5.25568163394928
 20
-14.82978167712689
 30
0.0
 40
1.629261306524276
  1

 41
0.9200000000000001
  7
ARIAL
 72
     2
 11
-5.25568163394928
 21
-14.01515102386475
 31
0.0
100
AcDbAttributeDefinition
  3

  2
MOTOR TYPE
 70
     0
 74
     2
  0
ATTDEF
  5
383
330
37B
100
AcDbEntity
  8
A
  6
FIN
 62
     1
100
AcDbText
 10
0.8759469389915466
 20
0.2946936191005609
 30
0.0
 40
1.512885498915399
  1

 41
0.9200000000000001
  7
ARIAL
 11
0.8759469389915466
 21
1.05113636855826
 31
0.0
100
AcDbAttributeDefinition
  3

  2
$CP:1
 70
     0
 74
     2
  0
ATTDEF
  5
384
330
37B
100
AcDbEntity
  8
A
  6
FIN
 62
     1
100
AcDbText
 10
7.883522450923919
 20
0.2946936191005609
 30
0.0
 40
1.512885498915399
  1

 41
0.9200000000000001
  7
ARIAL
 11
7.883522450923919
 21
1.05113636855826
 31
0.0
100
AcDbAttributeDefinition
  3

  2
$CP:2
 70
     0
 74
     2
  0
ATTDEF
  5
385
330
37B
100
AcDbEntity
  8
A
  6
FIN
 62
     1
100
AcDbText
 10
21.89867347478867
 20
0.2946936191005609
 30
0.0
 40
1.512885498915399
  1

 41
0.9200000000000001
  7
ARIAL
 11
21.89867347478867
 21
1.05113636855826
 31
0.0
100
AcDbAttributeDefinition
  3

  2
$CP:4
 70
     0
 74
     2
  0
ATTDEF
  5
386
330
37B
100
AcDbEntity
  8
A
  6
FIN
 62
     4
100
AcDbText
 10
14.01515102386475
 20
-22.77462041378021
 30
0.0
 40
1.86201292174203
  1

 41
0.69
  7
ARIAL
 72
     4
 11
14.01515102386475
 21
-22.77462041378021
 31
0.0
100
AcDbAttributeDefinition
  3

  2
COMMENT1
 70
     0
 74
     2
  0
ATTDEF
  5
387
330
37B
100
AcDbEntity
  8
A
  6
FIN
 62
     4
100
AcDbText
 10
14.01515102386475
 20
-25.22727117466206
 30
0.0
 40
1.86201292174203
  1

 41
0.69
  7
ARIAL
 72
     4
 11
14.01515102386475
 21
-25.22727117466206
 31
0.0
100
AcDbAttributeDefinition
  3

  2
COMMENT2
 70
     0
 74
     2
  0
ATTDEF
  5
388
330
37B
100
AcDbEntity
  8
A
  6
FIN
 62
     1
100
AcDbText
 10
-5.956439352216137
 20
-18.33356943309306
 30
0.0
 40
1.629261306524276
  1

 41
0.9200000000000001
  7
ARIAL
 72
     2
 11
-5.956439352216137
 21
-17.51893877983093
 31
0.0
100
AcDbAttributeDefinition
  3

  2
$POS_CROREF_1
 70
     0
 74
     2
  0
CIRCLE
  5
389
330
37B
100
AcDbEntity
  8
A
  6
SYMBOL_P
 62
     3
100
AcDbCircle
 10
14.01515102386475
 20
-8.759469389915466
 30
0.0
 40
7.007575511932372
  0
LINE
  5
38A
330
37B
100
AcDbEntity
  8
A
  6
SYMBOL_P
 62
     3
100
AcDbLine
 10
21.02272653579712
 20
0.0
 30
0.0
 11
21.02272653579712
 21
-3.503787755966186
 31
0.0
  0
LINE
  5
38B
330
37B
100
AcDbEntity
  8
A
  6
SYMBOL_P
 62
     3
100
AcDbLine
 10
7.007575511932372
 20
0.0
 30
0.0
 11
7.007575511932372
 21
-3.503787755966186
 31
0.0
  0
LINE
  5
38C
330
37B
100
AcDbEntity
  8
A
  6
SYMBOL_P
 62
     3
100
AcDbLine
 10
7.007575511932372
 20
-3.503787755966186
 30
0.0
 11
8.128788195306583
 21
-4.975378463105727
 31
0.0
  0
LINE
  5
38D
330
37B
100
AcDbEntity
  8
A
  6
SYMBOL_P
 62
     3
100
AcDbLine
 10
21.02272653579712
 20
-3.503787755966186
 30
0.0
 11
19.90151552315911
 21
-4.975378463105727
 31
0.0
  0
LINE
  5
38E
330
37B
100
AcDbEntity
  8
A
  6
SYMBOL_P
 62
     3
100
AcDbLine
 10
0.0
 20
0.0
 30
0.0
 11
0.0
 21
-8.759469389915466
 31
0.0
  0
LINE
  5
38F
330
37B
100
AcDbEntity
  8
A
  6
SYMBOL_P
 62
     3
100
AcDbLine
 10
7.007575511932372
 20
-8.759469389915466
 30
0.0
 11
0.0
 21
-8.759469389915466
 31
0.0
  0
ARC
  5
390
330
37B
100
AcDbEntity
  8
A
  6
SYMBOL_P
 62
     3
100
AcDbCircle
 10
13.13920402526856
 20
-10.27777767181397
 30
0.0
 40
0.9927400946617128
100
AcDbArc
 50
28.07250677603723
 51
151.9274899862483
  0
ARC
  5
391
330
37B
100
AcDbEntity
  8
A
  6
SYMBOL_P
 62
     3
100
AcDbCircle
 10
14.89109802246094
 20
-9.343434333801269
 30
0.0
 40
0.9927400946617128
100
AcDbArc
 50
208.0724706381459
 51
331.9275461599684
  0
ARC
  5
392
330
37B
100
AcDbEntity
  8
A
  6
FIN
 62
     7
100
AcDbCircle
 10
14.19034099578857
 20
-7.708330631256103
 30
0.0
 40
5.608798980712891
100
AcDbArc
 50
218.6598342095972
 51
321.3401815695923
  0
LINE
  5
393
330
37B
100
AcDbEntity
  8
A
  6
FIN
 62
     7
100
AcDbLine
 10
9.810605549631702
 20
-11.21212098616542
 30
0.0
 11
9.810605549631702
 21
-12.26325714588165
 31
0.0
  0
LINE
  5
394
330
37B
100
AcDbEntity
  8
A
  6
FIN
 62
     7
100
AcDbLine
 10
9.810605549631702
 20
-11.21212098616542
 30
0.0
 11
10.86174254471603
 21
-11.5624994276148
 31
0.0
  0
LINE
  5
395
330
37B
100
AcDbEntity
  8
A
  6
FIN
 62
     7
100
AcDbLine
 10
18.57007577491526
 20
-11.21212098616542
 30
0.0
 11
17.16856033838155
 21
-11.5624994276148
 31
0.0
  0
LINE
  5
396
330
37B
100
AcDbEntity
  8
A
  6
FIN
 62
     7
100
AcDbLine
 10
18.57007577491526
 20
-11.21212098616542
 30
0.0
 11
18.21969733346589
 21
-12.61363642269913
 31
0.0
  0
TEXT
  5
397
330
37B
100
AcDbEntity
  8
A
  6
FIN
 62
     1
100
AcDbText
 10
12.76921459805814
 20
-7.330425119700607
 30
0.0
 40
2.327516152177539
  1
M
 41
0.9200000000000001
  7
ARIAL
 72
     4
 11
14.01515018849664
 21
-6.166667043611838
 31
0.0
100
AcDbText
  0
ENDBLK
  5
399
330
37B
100
AcDbEntity
  8
0
100
AcDbBlockEnd
  0
BLOCK
  5
3B3
330
3AE
100
AcDbEntity
  8
0
100
AcDbBlockBegin
  2
T12C0N_T01_0_3_1
 70
     0
 10
0.0
 20
0.0
 30
0.0
  3
T12C0N_T01_0_3_1
  1

  0
LINE
  5
3AF
330
3AE
100
AcDbEntity
  8
A
  6
MOYEN
 62
     4
100
AcDbLine
 10
0.0
 20
0.0
 30
0.0
 11
0.0
 21
-2.102272737116521
 31
0.0
  0
LINE
  5
3B0
330
3AE
100
AcDbEntity
  8
A
  6
MOYEN
 62
     4
100
AcDbLine
 10
-1.751893877983093
 20
-2.102272737116521
 30
0.0
 11
1.751893877983093
 21
-2.102272737116521
 31
0.0
  0
LINE
  5
3B1
330
3AE
100
AcDbEntity
  8
A
  6
MOYEN
 62
     4
100
AcDbLine
 10
-1.051136159716236
 20
-2.803030455383378
 30
0.0
 11
1.051136159716236
 21
-2.803030455383378
 31
0.0
  0
LINE
  5
3B2
330
3AE
100
AcDbEntity
  8
A
  6
MOYEN
 62
     4
100
AcDbLine
 10
-0.3503784414493794
 20
-3.503788173650236
 30
0.0
 11
0.3503784414493794
 21
-3.503788173650236
 31
0.0
  0
ENDBLK
  5
3B4
330
3AE
100
AcDbEntity
  8
0
100
AcDbBlockEnd
  0
BLOCK
  5
3C3
330
3B7
100
AcDbEntity
  8
0
100
AcDbBlockBegin
  2
012C0_001_0_3_1
 70
     2
 10
0.0
 20
0.0
 30
0.0
  3
012C0_001_0_3_1
  1

  0
ATTDEF
  5
3B8
330
3B7
100
AcDbEntity
  8
A
  6
FIN
 62
     3
100
AcDbText
 10
3.153409105674783
 20
-0.3478760648355923
 30
0.0
 40
1.396509691306523
  1

 41
0.9200000000000001
  7
ARIAL
 11
3.153409105674783
 21
0.3503787808176693
 31
0.0
100
AcDbAttributeDefinition
  3

  2
$REPERE
 70
     0
 74
     2
  0
ATTDEF
  5
3B9
330
3B7
100
AcDbEntity
  8
A
  6
FIN
 62
     1
100
AcDbText
 10
-1.751893877983093
 20
1.287642083854383
 30
0.0
 40
1.629261306524276
  1

 41
0.9200000000000001
  7
ARIAL
 72
     2
 11
-1.751893877983093
 21
2.102272737116521
 31
0.0
100
AcDbAttributeDefinition
  3

  2
$NUM_EQUI
 70
     0
 74
     2
  0
ATTDEF
  5
3BA
330
3B7
100
AcDbEntity
  8
A
  6
FIN
 62
     1
100
AcDbText
 10
3.854166197415566
 20
-0.4642304922422045
 30
0.0
 40
1.629261306524276
  1

 41
0.9200000000000001
  7
ARIAL
 11
3.854166197415566
 21
0.3504001610199339
 31
0.0
100
AcDbAttributeDefinition
  3

  2
$POS_REFCRO_1
 70
     0
 74
     2
  0
LWPOLYLINE
  5
3BB
330
3B7
100
AcDbEntity
  8
A
  6
MOYEN
 62
     4
100
AcDbPolyline
 90
        5
 70
     0
 43
0.0
 10
2.102272319432473
 20
0.0
 10
0.0
 20
0.8409090948466086
 10
0.4204541297392553
 20
0.0
 10
0.0
 20
-0.8409090948466086
 10
2.102272319432473
 20
0.0
  0
LINE
  5
3C2
330
3B7
100
AcDbEntity
  8
A
  6
MOYEN
 62
     4
100
AcDbLine
 10
0.0
 20
0.0
 30
0.0
 11
0.4204541297392553
 21
0.0
 31
0.0
  0
ENDBLK
  5
3C4
330
3B7
100
AcDbEntity
  8
0
100
AcDbBlockEnd
  0
BLOCK
  5
3D8
330
3CE
100
AcDbEntity
  8
0
100
AcDbBlockBegin
  2
002C0_000_0_3_1
 70
     2
 10
0.0
 20
0.0
 30
0.0
  3
002C0_000_0_3_1
  1

  0
ATTDEF
  5
3CF
330
3CE
100
AcDbEntity
  8
A
  6
FIN
 62
     3
100
AcDbText
 10
2.803030246541354
 20
0.3503787808176693
 30
0.0
 40
1.280133883697645
  1

 41
0.9200000000000001
  7
ARIAL
 72
     4
 11
2.803030246541354
 21
0.3503787808176693
 31
0.0
100
AcDbAttributeDefinition
  3

  2
$REPERE
 70
     0
 74
     2
  0
ATTDEF
  5
3D0
330
3CE
100
AcDbEntity
  8
A
  6
FIN
 62
     1
100
AcDbText
 10
-1.751893877983093
 20
1.287642083854383
 30
0.0
 40
1.629261306524276
  1

 41
0.9200000000000001
  7
ARIAL
 72
     2
 11
-1.751893877983093
 21
2.102272737116521
 31
0.0
100
AcDbAttributeDefinition
  3

  2
$NUM_EQUI
 70
     0
 74
     2
  0
ATTDEF
  5
3D1
330
3CE
100
AcDbEntity
  8
A
  6
FIN
 62
     1
100
AcDbText
 10
3.153414326725397
 20
0.3504001610199339
 30
0.0
 40
1.280133883697645
  1

 41
0.9200000000000001
  7
ARIAL
 72
     4
 11
3.153414326725397
 21
0.3504001610199339
 31
0.0
100
AcDbAttributeDefinition
  3

  2
$POS_REFCRO_1
 70
     0
 74
     2
  0
LINE
  5
3D2
330
3CE
100
AcDbEntity
  8
A
  6
MOYEN
 62
     4
100
AcDbLine
 10
0.0
 20
1.401515123270677
 30
0.0
 11
0.0
 21
-1.401515123270677
 31
0.0
  0
LINE
  5
3D3
330
3CE
100
AcDbEntity
  8
A
  6
MOYEN
 62
     4
100
AcDbLine
 10
0.0
 20
-1.401515123270677
 30
0.0
 11
5.25568163394928
 21
-1.401515123270677
 31
0.0
  0
LINE
  5
3D4
330
3CE
100
AcDbEntity
  8
A
  6
MOYEN
 62
     4
100
AcDbLine
 10
5.25568163394928
 20
-1.401515123270677
 30
0.0
 11
7.007575511932372
 21
0.0
 31
0.0
  0
LINE
  5
3D5
330
3CE
100
AcDbEntity
  8
A
  6
MOYEN
 62
     4
100
AcDbLine
 10
7.007575511932372
 20
0.0
 30
0.0
 11
5.25568163394928
 21
1.401515123270677
 31
0.0
  0
LINE
  5
3D6
330
3CE
100
AcDbEntity
  8
A
  6
MOYEN
 62
     4
100
AcDbLine
 10
5.25568163394928
 20
1.401515123270677
 30
0.0
 11
0.0
 21
1.401515123270677
 31
0.0
  0
LINE
  5
3D7
330
3CE
100
AcDbEntity
  8
A
  6
MOYEN
 62
     4
100
AcDbLine
 10
0.0
 20
0.0
 30
0.0
 11
-0.7007575616353386
 21
0.0
 31
0.0
  0
ENDBLK
  5
3D9
330
3CE
100
AcDbEntity
  8
0
100
AcDbBlockEnd
  0
ENDSEC
  0
SECTION
  2
ENTITIES
  0
INSERT
  5
CB
330
1F
100
AcDbEntity
  8
A
  6
FIN
 62
     0
100
AcDbBlockReference
  2
14
 10
0.0
 20
0.0
 30
0.0
  0
TEXT
  5
CC
330
1F
100
AcDbEntity
  8
A
  6
FIN
 62
     7
100
AcDbText
 10
265.3862031278786
 20
1.161709504600529
 30
0.0
 40
1.992857142857142
  1
FOLIO:
 41
0.9200000000000001
  7
ARIAL
 72
     4
 11
269.5845794677733
 21
2.158817768096924
 31
0.0
100
AcDbText
  0
TEXT
  5
CD
330
1F
100
AcDbEntity
  8
A
  6
FIN
 62
     7
100
AcDbText
 10
281.3927282589705
 20
1.10391902923584
 30
0.0
 40
1.992857142857142
  1
3
 41
0.9200000000000001
  7
ARIAL
 72
     2
 11
282.8171997070313
 21
1.10391902923584
 31
0.0
100
AcDbText
  0
TEXT
  5
CE
330
1F
100
AcDbEntity
  8
A
  6
FIN
 62
     7
100
AcDbText
 10
283.6761474609375
 20
1.090788841247559
 30
0.0
 40
1.992857142857142
  1
/
 41
0.9200000000000001
  7
ARIAL
100
AcDbText
  0
TEXT
  5
CF
330
1F
100
AcDbEntity
  8
A
  6
FIN
 62
     7
100
AcDbText
 10
285.0936889648437
 20
1.161208152770995
 30
0.0
 40
1.992857142857142
  1
5
 41
0.9200000000000001
  7
ARIAL
100
AcDbText
  0
TEXT
  5
D0
330
1F
100
AcDbEntity
  8
A
  6
FIN
 62
     7
100
AcDbText
 10
141.6080932617188
 20
15.69452667236328
 30
0.0
 40
1.992857142857142
  1
Etabli par:
 41
0.9200000000000001
  7
ARIAL
100
AcDbText
  0
TEXT
  5
D1
330
1F
100
AcDbEntity
  8
A
  6
FIN
 62
     7
100
AcDbText
 10
213.0204533226892
 20
15.39131184148407
 30
0.0
 40
1.992857142857142
  1
SEE-PROJECT
 41
0.9200000000000001
  7
ARIAL
 72
     4
 11
221.9862442016601
 21
16.38842010498047
 31
0.0
100
AcDbText
  0
TEXT
  5
D2
330
1F
100
AcDbEntity
  8
A
  6
FIN
 62
     7
100
AcDbText
 10
172.2350921630859
 20
15.77711868286133
 30
0.0
 40
1.992857142857142
  1
Date :
 41
0.9200000000000001
  7
ARIAL
100
AcDbText
  0
TEXT
  5
D3
330
1F
100
AcDbEntity
  8
A
  6
FIN
 62
     7
100
AcDbText
 10
179.9422607421875
 20
15.48161888122559
 30
0.0
 40
1.992857142857142
  1
23/09/2008
 41
0.9200000000000001
  7
ARIAL
100
AcDbText
  0
TEXT
  5
D5
330
1F
100
AcDbEntity
  8
A
  6
FIN
 62
     7
100
AcDbText
 10
3.618400573730468
 20
3.265975952148437
 30
0.0
 40
3.321428571428572
  1
VARIATEUR ET ACTIONNEUR DE STORE
 41
0.9200000000000001
  7
ARIAL
100
AcDbText
  0
TEXT
  5
D6
330
1F
100
AcDbEntity
  8
A
  6
FIN
 62
     7
100
AcDbText
 10
163.3501739501953
 20
10.57504653930664
 30
0.0
 40
1.992857142857142
  1
Modifications
 41
0.9200000000000001
  7
ARIAL
100
AcDbText
  0
TEXT
  5
D7
330
1F
100
AcDbEntity
  8
A
  6
FIN
 62
     7
100
AcDbText
 10
209.9400634765625
 20
10.40599346160889
 30
0.0
 40
1.992857142857142
  1
Date
 41
0.9200000000000001
  7
ARIAL
100
AcDbText
  0
TEXT
  5
D8
330
1F
100
AcDbEntity
  8
A
  6
FIN
 62
     7
100
AcDbText
 10
225.3760223388671
 20
10.5940065383911
 30
0.0
 40
1.992857142857142
  1
Etabli par
 41
0.9200000000000001
  7
ARIAL
100
AcDbText
  0
TEXT
  5
D9
330
1F
100
AcDbEntity
  8
A
  6
FIN
 62
     7
100
AcDbText
 10
141.2790985107421
 20
7.872970581054687
 30
0.0
 40
1.328571428571428
  1
Edition originale
 41
0.9200000000000001
  7
ARIAL
100
AcDbText
  0
TEXT
  5
DA
330
1F
100
AcDbEntity
  8
A
  6
FIN
 62
     7
100
AcDbText
 10
206.1279602050781
 20
7.8822603225708
 30
0.0
 40
1.328571428571428
  1
23/09/2008
 41
0.9200000000000001
  7
ARIAL
100
AcDbText
  0
TEXT
  5
DB
330
1F
100
AcDbEntity
  8
A
  6
FIN
 62
     7
100
AcDbText
 10
224.9320068359375
 20
7.8822603225708
 30
0.0
 40
1.328571428571428
  1
CB
 41
0.9200000000000001
  7
ARIAL
100
AcDbText
  0
TEXT
  5
DC
330
1F
100
AcDbEntity
  8
A
  6
FIN
 62
     7
100
AcDbText
 10
141.2750091552734
 20
5.451072692871093
 30
0.0
 40
1.328571428571428
  1
Modification circuit chauffage
 41
0.9200000000000001
  7
ARIAL
100
AcDbText
  0
TEXT
  5
DD
330
1F
100
AcDbEntity
  8
A
  6
FIN
 62
     7
100
AcDbText
 10
206.1238708496094
 20
5.460361480712891
 30
0.0
 40
1.328571428571428
  1
17/10/2008
 41
0.9200000000000001
  7
ARIAL
100
AcDbText
  0
TEXT
  5
DE
330
1F
100
AcDbEntity
  8
A
  6
FIN
 62
     7
100
AcDbText
 10
224.9279174804688
 20
5.460361480712891
 30
0.0
 40
1.328571428571428
  1
CB
 41
0.9200000000000001
  7
ARIAL
100
AcDbText
  0
TEXT
  5
DF
330
1F
100
AcDbEntity
  8
A
  6
FIN
 62
     7
100
AcDbText
 10
141.2959594726563
 20
2.898968696594238
 30
0.0
 40
1.328571428571428
  1
Modification sorties
 41
0.9200000000000001
  7
ARIAL
100
AcDbText
  0
TEXT
  5
E0
330
1F
100
AcDbEntity
  8
A
  6
FIN
 62
     7
100
AcDbText
 10
206.1448211669921
 20
2.908257484436035
 30
0.0
 40
1.328571428571428
  1
15/01/2009
 41
0.9200000000000001
  7
ARIAL
100
AcDbText
  0
TEXT
  5
E1
330
1F
100
AcDbEntity
  8
A
  6
FIN
 62
     7
100
AcDbText
 10
224.9488525390625
 20
2.908257484436035
 30
0.0
 40
1.328571428571428
  1
FA
 41
0.9200000000000001
  7
ARIAL
100
AcDbText
  0
LINE
  5
E2
330
1F
100
AcDbEntity
  8
A
  6
POINT
 62
     3
100
AcDbLine
 10
129.6401469707489
 20
118.1060571670532
 30
0.0
 11
126.1363592147827
 21
118.1060571670532
 31
0.0
  0
LINE
  5
E3
330
1F
100
AcDbEntity
  8
A
  6
POINT
 62
     3
100
AcDbLine
 10
129.6401469707489
 20
114.6022694110869
 30
0.0
 11
129.6401469707489
 21
118.1060571670532
 31
0.0
  0
LINE
  5
E4
330
1F
100
AcDbEntity
  8
A
  6
BLEU
 62
     5
100
AcDbLine
 10
126.1363592147827
 20
128.6174204349518
 30
0.0
 11
126.1363592147827
 21
156.6477224826813
 31
0.0
  0
TEXT
  5
E5
330
1F
100
AcDbEntity
  8
A
  6
FIN
 62
     4
100
AcDbText
 10
125.2387154884647
 20
141.0728763859991
 30
0.0
 40
1.163758076088768
  1
303
 50
90.0
 41
1.149999999999999
  7
ARIAL
 72
     4
 11
124.6647747729038
 21
142.6325781417613
 31
0.0
100
AcDbText
  0
LINE
  5
E6
330
1F
100
AcDbEntity
  8
A
  6
BLEU
 62
     5
100
AcDbLine
 10
136.6477224826813
 20
97.08333063125609
 30
0.0
 11
119.1287837028502
 21
97.08333063125609
 31
0.0
  0
HATCH
  5
E7
330
1F
100
AcDbEntity
  8
A
  6
BLEU
 62
     5
100
AcDbHatch
 10
0.0
 20
0.0
 30
0.0
210
0.0
220
0.0
230
1.0
  2
SOLID
 70
     1
 71
     0
 91
        1
 92
        0
 93
        1
 72
     2
 10
38.54166531562804
 20
184.6780245304108
 40
0.6499999761581421
 50
0.0
 51
360.0
 73
     1
 97
        0
 75
     0
 76
     1
 98
        0
  0
LINE
  5
E8
330
1F
100
AcDbEntity
  8
A
  6
BLEU
 62
     5
100
AcDbLine
 10
31.53408980369567
 20
184.6780245304108
 30
0.0
 11
37.89166534616851
 21
184.6780245304108
 31
0.0
  0
TEXT
  5
E9
330
1F
100
AcDbEntity
  8
A
  6
FIN
 62
     4
100
AcDbText
 10
33.47817580389972
 20
185.5756682567287
 30
0.0
 40
1.163758076088768
  1
113
 41
1.149999999999999
  7
ARIAL
 72
     4
 11
35.03787755966187
 21
186.1496089722895
 31
0.0
100
AcDbText
  0
LINE
  5
EA
330
1F
100
AcDbEntity
  8
A
  6
BLEU
 62
     5
100
AcDbLine
 10
119.1287837028502
 20
90.07575511932371
 30
0.0
 11
119.1287837028502
 21
97.08333063125609
 31
0.0
  0
LINE
  5
EB
330
1F
100
AcDbEntity
  8
A
  6
BLEU
 62
     5
100
AcDbLine
 10
59.56439185142517
 20
153.143934726715
 30
0.0
 11
59.56439185142517
 21
90.07575511932371
 31
0.0
  0
TEXT
  5
EC
330
1F
100
AcDbEntity
  8
A
  6
FIN
 62
     4
100
AcDbText
 10
58.66674144216241
 20
102.5298009690212
 30
0.0
 40
1.163758076088768
  1
302
 50
90.0
 41
1.149999999999999
  7
ARIAL
 72
     4
 11
58.09280072660158
 21
104.0895027247834
 31
0.0
100
AcDbText
  0
HATCH
  5
ED
330
1F
100
AcDbEntity
  8
A
  6
BLEU
 62
     5
100
AcDbHatch
 10
0.0
 20
0.0
 30
0.0
210
0.0
220
0.0
230
1.0
  2
SOLID
 70
     1
 71
     0
 91
        1
 92
        0
 93
        1
 72
     2
 10
24.52651429176331
 20
191.6856000423431
 40
0.6499999761581421
 50
0.0
 51
360.0
 73
     1
 97
        0
 75
     0
 76
     1
 98
        0
  0
HATCH
  5
EE
330
1F
100
AcDbEntity
  8
A
  6
BLEU
 62
     5
100
AcDbHatch
 10
0.0
 20
0.0
 30
0.0
210
0.0
220
0.0
230
1.0
  2
SOLID
 70
     1
 71
     0
 91
        1
 92
        0
 93
        1
 72
     2
 10
98.10605716705323
 20
191.6856000423431
 40
0.6499999761581421
 50
0.0
 51
360.0
 73
     1
 97
        0
 75
     0
 76
     1
 98
        0
  0
LINE
  5
EF
330
1F
100
AcDbEntity
  8
A
  6
BLEU
 62
     5
100
AcDbLine
 10
25.17651426122285
 20
191.6856000423431
 30
0.0
 11
97.45605719759369
 21
191.6856000423431
 31
0.0
  0
TEXT
  5
F0
330
1F
100
AcDbEntity
  8
A
  6
FIN
 62
     4
100
AcDbText
 10
65.0101604799878
 20
192.5729239494324
 30
0.0
 40
1.163758076088768
  1
114
 41
1.149999999999999
  7
ARIAL
 72
     4
 11
66.56986223574995
 21
193.1571844842219
 31
0.0
100
AcDbText
  0
HATCH
  5
F1
330
1F
100
AcDbEntity
  8
A
  6
BLEU
 62
     5
100
AcDbHatch
 10
0.0
 20
0.0
 30
0.0
210
0.0
220
0.0
230
1.0
  2
SOLID
 70
     1
 71
     0
 91
        1
 92
        0
 93
        1
 72
     2
 10
98.10605716705323
 20
97.08333063125609
 40
0.6499999761581421
 50
0.0
 51
360.0
 73
     1
 97
        0
 75
     0
 76
     1
 98
        0
  0
LINE
  5
F2
330
1F
100
AcDbEntity
  8
A
  6
BLEU
 62
     5
100
AcDbLine
 10
98.10605716705323
 20
97.73333060071564
 30
0.0
 11
98.10605716705323
 21
191.0356000728836
 31
0.0
  0
TEXT
  5
F3
330
1F
100
AcDbEntity
  8
A
  6
FIN
 62
     4
100
AcDbText
 10
97.21872657701908
 20
102.5241939783458
 30
0.0
 40
1.163758076088768
  1
114
 50
90.0
 41
1.149999999999999
  7
ARIAL
 72
     4
 11
96.63446604222963
 21
104.083895734108
 31
0.0
100
AcDbText
  0
LINE
  5
F4
330
1F
100
AcDbEntity
  8
A
  6
BLEU
 62
     5
100
AcDbLine
 10
136.6477224826813
 20
97.08333063125609
 30
0.0
 11
136.6477224826813
 21
167.1590857505798
 31
0.0
  0
TEXT
  5
F5
330
1F
100
AcDbEntity
  8
A
  6
FIN
 62
     4
100
AcDbText
 10
135.7500787563633
 20
102.5312043874263
 30
0.0
 40
1.163758076088768
  1
303
 50
90.0
 41
1.149999999999999
  7
ARIAL
 72
     4
 11
135.1761380408025
 21
104.0909061431884
 31
0.0
100
AcDbText
  0
LINE
  5
F6
330
1F
100
AcDbEntity
  8
A
  6
BLEU
 62
     5
100
AcDbLine
 10
136.6477224826813
 20
167.1590857505798
 30
0.0
 11
126.1363592147827
 21
167.1590857505798
 31
0.0
  0
LINE
  5
F7
330
1F
100
AcDbEntity
  8
A
  6
BLEU
 62
     5
100
AcDbLine
 10
45.54924082756043
 20
93.57954287528992
 30
0.0
 11
45.54924082756043
 21
153.143934726715
 31
0.0
  0
TEXT
  5
F8
330
1F
100
AcDbEntity
  8
A
  6
FIN
 62
     4
100
AcDbText
 10
44.65159041829767
 20
102.5270008151559
 30
0.0
 40
1.163758076088768
  1
301
 50
90.0
 41
1.149999999999999
  7
ARIAL
 72
     4
 11
44.07764970273684
 21
104.086702570918
 31
0.0
100
AcDbText
  0
LINE
  5
F9
330
1F
100
AcDbEntity
  8
A
  6
BLEU
 62
     5
100
AcDbLine
 10
126.1363592147827
 20
163.6552979946136
 30
0.0
 11
126.1363592147827
 21
167.1590857505798
 31
0.0
  0
HATCH
  5
FA
330
1F
100
AcDbEntity
  8
A
  6
BLEU
 62
     5
100
AcDbHatch
 10
0.0
 20
0.0
 30
0.0
210
0.0
220
0.0
230
1.0
  2
SOLID
 70
     1
 71
     0
 91
        1
 92
        0
 93
        1
 72
     2
 10
91.09848165512085
 20
184.6780245304108
 40
0.6499999761581421
 50
0.0
 51
360.0
 73
     1
 97
        0
 75
     0
 76
     1
 98
        0
  0
HATCH
  5
FB
330
1F
100
AcDbEntity
  8
A
  6
BLEU
 62
     5
100
AcDbHatch
 10
0.0
 20
0.0
 30
0.0
210
0.0
220
0.0
230
1.0
  2
SOLID
 70
     1
 71
     0
 91
        1
 92
        0
 93
        1
 72
     2
 10
105.1136326789855
 20
184.6780245304108
 40
0.6499999761581421
 50
0.0
 51
360.0
 73
     1
 97
        0
 75
     0
 76
     1
 98
        0
  0
LINE
  5
FC
330
1F
100
AcDbEntity
  8
A
  6
BLEU
 62
     5
100
AcDbLine
 10
91.7484816245804
 20
184.6780245304108
 30
0.0
 11
104.463632709526
 21
184.6780245304108
 31
0.0
  0
LINE
  5
FD
330
1F
100
AcDbEntity
  8
A
  6
BLEU
 62
     5
100
AcDbLine
 10
45.54924082756043
 20
153.143934726715
 30
0.0
 11
49.05302858352661
 21
153.143934726715
 31
0.0
  0
LINE
  5
FE
330
1F
100
AcDbEntity
  8
A
  6
JAUNE
 62
     2
100
AcDbLine
 10
10.51136326789856
 20
48.03030204772949
 30
0.0
 11
24.52651429176331
 21
48.03030204772949
 31
0.0
  0
LINE
  5
FF
330
1F
100
AcDbEntity
  8
A
  6
JAUNE
 62
     2
100
AcDbLine
 10
10.51136326789856
 20
44.52651429176331
 30
0.0
 11
31.53408980369567
 21
44.52651429176331
 31
0.0
  0
LINE
  5
100
330
1F
100
AcDbEntity
  8
A
  6
JAUNE
 62
     2
100
AcDbLine
 10
24.52651429176331
 20
62.04545307159424
 30
0.0
 11
24.52651429176331
 21
48.03030204772949
 31
0.0
  0
TEXT
  5
101
330
1F
100
AcDbEntity
  8
A
  6
FIN
 62
     4
100
AcDbText
 10
23.43953489126783
 20
54.49195745173178
 30
0.0
 40
1.163758076088768
  1
+
 50
90.0
 41
1.149999999999999
  7
ARIAL
 72
     4
 11
23.05492316693972
 21
55.03787588892567
 31
0.0
100
AcDbText
  0
LINE
  5
102
330
1F
100
AcDbEntity
  8
A
  6
JAUNE
 62
     2
100
AcDbLine
 10
38.54166531562804
 20
48.03030204772949
 30
0.0
 11
91.09848165512085
 21
48.03030204772949
 31
0.0
  0
TEXT
  5
103
330
1F
100
AcDbEntity
  8
A
  6
FIN
 62
     4
100
AcDbText
 10
66.02429799462972
 20
49.11728144822497
 30
0.0
 40
1.163758076088768
  1
+
 41
1.149999999999999
  7
ARIAL
 72
     4
 11
66.57021643182361
 21
49.50189317255308
 31
0.0
100
AcDbText
  0
LINE
  5
104
330
1F
100
AcDbEntity
  8
A
  6
JAUNE
 62
     2
100
AcDbLine
 10
38.54166531562804
 20
62.04545307159424
 30
0.0
 11
38.54166531562804
 21
48.03030204772949
 31
0.0
  0
TEXT
  5
105
330
1F
100
AcDbEntity
  8
A
  6
FIN
 62
     4
100
AcDbText
 10
37.45468591513257
 20
54.49195745173178
 30
0.0
 40
1.163758076088768
  1
+
 50
90.0
 41
1.149999999999999
  7
ARIAL
 72
     4
 11
37.07007419080446
 21
55.03787588892567
 31
0.0
100
AcDbText
  0
LINE
  5
106
330
1F
100
AcDbEntity
  8
A
  6
JAUNE
 62
     2
100
AcDbLine
 10
91.09848165512085
 20
62.04545307159424
 30
0.0
 11
91.09848165512085
 21
48.03030204772949
 31
0.0
  0
TEXT
  5
107
330
1F
100
AcDbEntity
  8
A
  6
FIN
 62
     4
100
AcDbText
 10
90.01150225462536
 20
54.49195745173178
 30
0.0
 40
1.163758076088768
  1
+
 50
90.0
 41
1.149999999999999
  7
ARIAL
 72
     4
 11
89.62689053029725
 21
55.03787588892567
 31
0.0
100
AcDbText
  0
LINE
  5
108
330
1F
100
AcDbEntity
  8
A
  6
JAUNE
 62
     2
100
AcDbLine
 10
105.1136326789855
 20
48.03030204772949
 30
0.0
 11
276.7992327213286
 21
48.03030204772949
 31
0.0
  0
TEXT
  5
109
330
1F
100
AcDbEntity
  8
A
  6
FIN
 62
     4
100
AcDbText
 10
192.1617131146886
 20
49.11728144822497
 30
0.0
 40
1.163758076088768
  1
+
 41
1.149999999999999
  7
ARIAL
 72
     4
 11
192.7076315518825
 21
49.50189317255308
 31
0.0
100
AcDbText
  0
LINE
  5
10A
330
1F
100
AcDbEntity
  8
A
  6
JAUNE
 62
     2
100
AcDbLine
 10
105.1136326789855
 20
62.04545307159424
 30
0.0
 11
105.1136326789855
 21
48.03030204772949
 31
0.0
  0
TEXT
  5
10B
330
1F
100
AcDbEntity
  8
A
  6
FIN
 62
     4
100
AcDbText
 10
104.0266532784901
 20
54.49195745173178
 30
0.0
 40
1.163758076088768
  1
+
 50
90.0
 41
1.149999999999999
  7
ARIAL
 72
     4
 11
103.642041554162
 21
55.03787588892567
 31
0.0
100
AcDbText
  0
LINE
  5
10C
330
1F
100
AcDbEntity
  8
A
  6
JAUNE
 62
     2
100
AcDbLine
 10
31.53408980369567
 20
62.04545307159424
 30
0.0
 11
31.53408980369567
 21
44.52651429176331
 31
0.0
  0
TEXT
  5
10D
330
1F
100
AcDbEntity
  8
A
  6
FIN
 62
     4
100
AcDbText
 10
30.13434049734823
 20
54.72657624346936
 30
0.0
 40
1.163758076088768
  1
-
 50
90.0
 41
1.149999999999999
  7
ARIAL
 72
     4
 11
30.06249867887209
 21
55.03787755966186
 31
0.0
100
AcDbText
  0
LINE
  5
10E
330
1F
100
AcDbEntity
  8
A
  6
JAUNE
 62
     2
100
AcDbLine
 10
45.54924082756043
 20
44.52651429176331
 30
0.0
 11
98.10605716705323
 21
44.52651429176331
 31
0.0
  0
TEXT
  5
10F
330
1F
100
AcDbEntity
  8
A
  6
FIN
 62
     4
100
AcDbText
 10
66.26066604716503
 20
45.92626359811074
 30
0.0
 40
1.163758076088768
  1
-
 41
1.149999999999999
  7
ARIAL
 72
     4
 11
66.57196736335753
 21
45.9981054165869
 31
0.0
100
AcDbText
  0
LINE
  5
110
330
1F
100
AcDbEntity
  8
A
  6
JAUNE
 62
     2
100
AcDbLine
 10
45.54924082756043
 20
62.04545307159424
 30
0.0
 11
45.54924082756043
 21
44.52651429176331
 31
0.0
  0
TEXT
  5
111
330
1F
100
AcDbEntity
  8
A
  6
FIN
 62
     4
100
AcDbText
 10
44.14949152121299
 20
54.72657624346936
 30
0.0
 40
1.163758076088768
  1
-
 50
90.0
 41
1.149999999999999
  7
ARIAL
 72
     4
 11
44.07764970273684
 21
55.03787755966186
 31
0.0
100
AcDbText
  0
LINE
  5
112
330
1F
100
AcDbEntity
  8
A
  6
JAUNE
 62
     2
100
AcDbLine
 10
112.121208190918
 20
44.52651429176331
 30
0.0
 11
276.7992327213286
 21
44.52651429176331
 31
0.0
  0
TEXT
  5
113
330
1F
100
AcDbEntity
  8
A
  6
FIN
 62
     4
100
AcDbText
 10
192.3868605029282
 20
45.92626359811074
 30
0.0
 40
1.163758076088768
  1
-
 41
1.149999999999999
  7
ARIAL
 72
     4
 11
192.6981618191206
 21
45.9981054165869
 31
0.0
100
AcDbText
  0
LINE
  5
114
330
1F
100
AcDbEntity
  8
A
  6
JAUNE
 62
     2
100
AcDbLine
 10
112.121208190918
 20
62.04545307159424
 30
0.0
 11
112.121208190918
 21
44.52651429176331
 31
0.0
  0
TEXT
  5
115
330
1F
100
AcDbEntity
  8
A
  6
FIN
 62
     4
100
AcDbText
 10
110.7214588845705
 20
54.72657624346936
 30
0.0
 40
1.163758076088768
  1
-
 50
90.0
 41
1.149999999999999
  7
ARIAL
 72
     4
 11
110.6496170660943
 21
55.03787755966186
 31
0.0
100
AcDbText
  0
LINE
  5
116
330
1F
100
AcDbEntity
  8
A
  6
JAUNE
 62
     2
100
AcDbLine
 10
98.10605716705323
 20
62.04545307159424
 30
0.0
 11
98.10605716705323
 21
44.52651429176331
 31
0.0
  0
TEXT
  5
117
330
1F
100
AcDbEntity
  8
A
  6
FIN
 62
     4
100
AcDbText
 10
96.70630786070578
 20
54.72657624346936
 30
0.0
 40
1.163758076088768
  1
-
 50
90.0
 41
1.149999999999999
  7
ARIAL
 72
     4
 11
96.63446604222963
 21
55.03787755966186
 31
0.0
100
AcDbText
  0
LINE
  5
118
330
1F
100
AcDbEntity
  8
A
  6
BLEU
 62
     5
100
AcDbLine
 10
38.54166531562804
 20
90.07575511932371
 30
0.0
 11
38.54166531562804
 21
170.6628735065459
 31
0.0
  0
TEXT
  5
119
330
1F
100
AcDbEntity
  8
A
  6
FIN
 62
     4
100
AcDbText
 10
37.64401490636529
 20
102.5301551650949
 30
0.0
 40
1.163758076088768
  1
113
 50
90.0
 41
1.149999999999999
  7
ARIAL
 72
     4
 11
37.07007419080446
 21
104.089856920857
 31
0.0
100
AcDbText
  0
LINE
  5
11A
330
1F
100
AcDbEntity
  8
A
  6
BLEU
 62
     5
100
AcDbLine
 10
38.54166531562804
 20
177.6704490184783
 30
0.0
 11
38.54166531562804
 21
184.0280245609512
 31
0.0
  0
LINE
  5
11B
330
1F
100
AcDbEntity
  8
A
  6
BLEU
 62
     5
100
AcDbLine
 10
10.51136326789856
 20
191.6856000423431
 30
0.0
 11
23.87651432230376
 21
191.6856000423431
 31
0.0
  0
TEXT
  5
11C
330
1F
100
AcDbEntity
  8
A
  6
FIN
 62
     4
100
AcDbText
 10
15.95923702406878
 20
192.5729239494324
 30
0.0
 40
1.163758076088768
  1
114
 41
1.149999999999999
  7
ARIAL
 72
     4
 11
17.51893877983093
 21
193.1571844842219
 31
0.0
100
AcDbText
  0
LINE
  5
11D
330
1F
100
AcDbEntity
  8
A
  6
BLEU
 62
     5
100
AcDbLine
 10
105.1136326789855
 20
90.07575511932371
 30
0.0
 11
105.1136326789855
 21
97.08333063125609
 31
0.0
  0
LINE
  5
11E
330
1F
100
AcDbEntity
  8
A
  6
BLEU
 62
     5
100
AcDbLine
 10
105.1136326789855
 20
97.08333063125609
 30
0.0
 11
98.75605713651275
 21
97.08333063125609
 31
0.0
  0
LINE
  5
11F
330
1F
100
AcDbEntity
  8
A
  6
BLEU
 62
     5
100
AcDbLine
 10
39.1916652850876
 20
184.6780245304108
 30
0.0
 11
90.44848168566131
 21
184.6780245304108
 31
0.0
  0
TEXT
  5
120
330
1F
100
AcDbEntity
  8
A
  6
FIN
 62
     4
100
AcDbText
 10
65.01051467606146
 20
185.5756682567287
 30
0.0
 40
1.163758076088768
  1
113
 41
1.149999999999999
  7
ARIAL
 72
     4
 11
66.57021643182361
 21
186.1496089722895
 31
0.0
100
AcDbText
  0
LINE
  5
121
330
1F
100
AcDbEntity
  8
A
  6
BLEU
 62
     5
100
AcDbLine
 10
112.121208190918
 20
128.6174204349518
 30
0.0
 11
112.121208190918
 21
156.6477224826813
 31
0.0
  0
TEXT
  5
122
330
1F
100
AcDbEntity
  8
A
  6
FIN
 62
     4
100
AcDbText
 10
111.2235577816552
 20
141.0728763859991
 30
0.0
 40
1.163758076088768
  1
304
 50
90.0
 41
1.149999999999999
  7
ARIAL
 72
     4
 11
110.6496170660943
 21
142.6325781417613
 31
0.0
100
AcDbText
  0
LINE
  5
123
330
1F
100
AcDbEntity
  8
A
  6
BLEU
 62
     5
100
AcDbLine
 10
105.7636326484451
 20
184.6780245304108
 30
0.0
 11
133.143934726715
 21
184.6780245304108
 31
0.0
  0
TEXT
  5
124
330
1F
100
AcDbEntity
  8
A
  6
FIN
 62
     4
100
AcDbText
 10
117.5690886300329
 20
185.5756682567287
 30
0.0
 40
1.163758076088768
  1
113
 41
1.149999999999999
  7
ARIAL
 72
     4
 11
119.128790385795
 21
186.1496089722895
 31
0.0
100
AcDbText
  0
LINE
  5
125
330
1F
100
AcDbEntity
  8
A
  6
BLEU
 62
     5
100
AcDbLine
 10
98.75605713651275
 20
191.6856000423431
 30
0.0
 11
133.143934726715
 21
191.6856000423431
 31
0.0
  0
TEXT
  5
126
330
1F
100
AcDbEntity
  8
A
  6
FIN
 62
     4
100
AcDbText
 10
117.5690886300329
 20
192.5729239494324
 30
0.0
 40
1.163758076088768
  1
114
 41
1.149999999999999
  7
ARIAL
 72
     4
 11
119.128790385795
 21
193.1571844842219
 31
0.0
100
AcDbText
  0
LINE
  5
127
330
1F
100
AcDbEntity
  8
A
  6
BLEU
 62
     5
100
AcDbLine
 10
98.10605716705323
 20
90.07575511932371
 30
0.0
 11
98.10605716705323
 21
96.43333066179657
 31
0.0
  0
LINE
  5
128
330
1F
100
AcDbEntity
  8
A
  6
BLEU
 62
     5
100
AcDbLine
 10
24.52651429176331
 20
90.07575511932371
 30
0.0
 11
24.52651429176331
 21
191.0356000728836
 31
0.0
  0
TEXT
  5
129
330
1F
100
AcDbEntity
  8
A
  6
FIN
 62
     4
100
AcDbText
 10
23.63918370172917
 20
102.5280500374873
 30
0.0
 40
1.163758076088768
  1
114
 50
90.0
 41
1.149999999999999
  7
ARIAL
 72
     4
 11
23.05492316693972
 21
104.0877517932494
 31
0.0
100
AcDbText
  0
LINE
  5
12A
330
1F
100
AcDbEntity
  8
A
  6
BLEU
 62
     5
100
AcDbLine
 10
105.1136326789855
 20
163.6552979946136
 30
0.0
 11
105.1136326789855
 21
184.0280245609512
 31
0.0
  0
LINE
  5
12B
330
1F
100
AcDbEntity
  8
A
  6
BLEU
 62
     5
100
AcDbLine
 10
91.09848165512085
 20
90.07575511932371
 30
0.0
 11
91.09848165512085
 21
170.6628735065459
 31
0.0
  0
TEXT
  5
12C
330
1F
100
AcDbEntity
  8
A
  6
FIN
 62
     4
100
AcDbText
 10
90.20083124585809
 20
102.5301551650949
 30
0.0
 40
1.163758076088768
  1
113
 50
90.0
 41
1.149999999999999
  7
ARIAL
 72
     4
 11
89.62689053029725
 21
104.089856920857
 31
0.0
100
AcDbText
  0
LINE
  5
12D
330
1F
100
AcDbEntity
  8
A
  6
BLEU
 62
     5
100
AcDbLine
 10
105.1136326789855
 20
128.6174204349518
 30
0.0
 11
105.1136326789855
 21
156.6477224826813
 31
0.0
  0
TEXT
  5
12E
330
1F
100
AcDbEntity
  8
A
  6
FIN
 62
     4
100
AcDbText
 10
104.216379185847
 20
141.0728763859991
 30
0.0
 40
1.163758076088768
  1
109
 50
90.0
 41
1.149999999999999
  7
ARIAL
 72
     4
 11
103.642041554162
 21
142.6325781417613
 31
0.0
100
AcDbText
  0
LINE
  5
12F
330
1F
100
AcDbEntity
  8
A
  6
BLEU
 62
     5
100
AcDbLine
 10
56.06060409545897
 20
153.143934726715
 30
0.0
 11
59.56439185142517
 21
153.143934726715
 31
0.0
  0
LINE
  5
130
330
1F
100
AcDbEntity
  8
A
  6
BLEU
 62
     5
100
AcDbLine
 10
140.1515102386474
 20
174.1666612625121
 30
0.0
 11
112.121208190918
 21
174.1666612625121
 31
0.0
  0
LINE
  5
131
330
1F
100
AcDbEntity
  8
A
  6
BLEU
 62
     5
100
AcDbLine
 10
112.121208190918
 20
163.6552979946136
 30
0.0
 11
112.121208190918
 21
174.1666612625121
 31
0.0
  0
LINE
  5
132
330
1F
100
AcDbEntity
  8
A
  6
BLEU
 62
     5
100
AcDbLine
 10
91.09848165512085
 20
177.6704490184783
 30
0.0
 11
91.09848165512085
 21
184.0280245609512
 31
0.0
  0
LINE
  5
133
330
1F
100
AcDbEntity
  8
A
  6
BLEU
 62
     5
100
AcDbLine
 10
140.1515102386474
 20
90.07575511932371
 30
0.0
 11
140.1515102386474
 21
174.1666612625121
 31
0.0
  0
TEXT
  5
134
330
1F
100
AcDbEntity
  8
A
  6
FIN
 62
     4
100
AcDbText
 10
139.2538665123295
 20
102.5255973967508
 30
0.0
 40
1.163758076088768
  1
304
 50
90.0
 41
1.149999999999999
  7
ARIAL
 72
     4
 11
138.6799257967687
 21
104.085299152513
 31
0.0
100
AcDbText
  0
LINE
  5
135
330
1F
100
AcDbEntity
  8
B
  6
MOYEN
 62
     4
100
AcDbLine
 10
129.0948638916015
 20
147.5415954589843
 30
0.0
 11
103.1524047851563
 21
147.6100006103515
 31
0.0
  0
LINE
  5
137
330
1F
100
AcDbEntity
  8
B
  6
MOYEN
 62
     4
100
AcDbLine
 10
63.43265533447265
 20
128.0149230957031
 30
0.0
 11
43.05979919433593
 21
128.0149230957031
 31
0.0
  0
LINE
  5
138
330
1F
100
AcDbEntity
  8
B
  6
BLEU
 62
     5
100
AcDbLine
 10
45.54924011230468
 20
94.98105621337892
 30
0.0
 11
45.54924011230468
 21
89.375
 31
0.0
  0
LINE
  5
139
330
1F
100
AcDbEntity
  8
B
  6
POINT
 62
     3
100
AcDbLine
 10
105.1136322021483
 20
160.1515045166015
 30
0.0
 11
126.1363601684569
 21
160.1515045166015
 31
0.0
  0
INSERT
  5
146
330
1F
100
AcDbEntity
  8
B
  6
FIN
 62
     0
100
AcDbBlockReference
 66
     1
  2
004C0_000_0_3_1
 10
10.51136326789856
 20
44.52651429176331
 30
0.0
  0
ATTRIB
  5
147
330
146
100
AcDbEntity
  8
B
  6
FIN
 62
     1
100
AcDbText
 10
12.26325714588165
 20
45.81415595793365
 30
0.0
 40
1.629261306524276
  1
-
 41
0.9200000000000001
  7
ARIAL
 11
12.26325714588165
 21
46.62878661119578
 31
0.0
100
AcDbAttribute
  2
$NUM_EQUI
 70
     0
 74
     2
  0
ATTRIB
  5
148
330
146
100
AcDbEntity
  8
B
  6
FIN
 62
     3
100
AcDbText
 10
5.849305278641952
 20
44.23682579136387
 30
0.0
 40
1.280133883697645
  1
4
 41
0.9200000000000001
  7
ARIAL
 72
     4
 11
6.306817793665516
 21
44.87689273321269
 31
0.0
100
AcDbAttribute
  2
$REPERE
 70
     1
 74
     2
  0
ATTRIB
  5
149
330
146
100
AcDbEntity
  8
B
  6
FIN
 62
     1
100
AcDbText
 10
5.010719379371487
 20
44.24514305792973
 30
0.0
 40
1.280133883697645
  1
2-20
 41
0.9200000000000001
  7
ARIAL
 72
     4
 11
6.657202082691582
 21
44.87691445278324
 31
0.0
100
AcDbAttribute
  2
$REFTEAB00
 70
     0
 74
     2
  0
SEQEND
  5
14B
330
146
100
AcDbEntity
  8
B
  6
FIN
 62
     0
  0
INSERT
  5
14A
330
1F
100
AcDbEntity
  8
B
  6
FIN
 62
     0
100
AcDbBlockReference
 66
     1
  2
004C0_000_0_3_1
 10
10.51136326789856
 20
48.03030204772949
 30
0.0
  0
ATTRIB
  5
14C
330
14A
100
AcDbEntity
  8
B
  6
FIN
 62
     1
100
AcDbText
 10
12.26325714588165
 20
49.31794538463602
 30
0.0
 40
1.629261306524276
  1
+
 41
0.9200000000000001
  7
ARIAL
 11
12.26325714588165
 21
50.13257603789816
 31
0.0
100
AcDbAttribute
  2
$NUM_EQUI
 70
     0
 74
     2
  0
ATTRIB
  5
14D
330
14A
100
AcDbEntity
  8
B
  6
FIN
 62
     3
100
AcDbText
 10
5.849305278641952
 20
47.73799557164667
 30
0.0
 40
1.280133883697645
  1
1
 41
0.9200000000000001
  7
ARIAL
 72
     4
 11
6.306817793665516
 21
48.38068215991507
 31
0.0
100
AcDbAttribute
  2
$REPERE
 70
     1
 74
     2
  0
ATTRIB
  5
14E
330
14A
100
AcDbEntity
  8
B
  6
FIN
 62
     1
100
AcDbText
 10
5.010719379371487
 20
47.74893081389591
 30
0.0
 40
1.280133883697645
  1
2-20
 41
0.9200000000000001
  7
ARIAL
 72
     4
 11
6.657202082691582
 21
48.38070220874943
 31
0.0
100
AcDbAttribute
  2
$REFTEAB00
 70
     0
 74
     2
  0
SEQEND
  5
15C
330
14A
100
AcDbEntity
  8
B
  6
FIN
 62
     0
  0
INSERT
  5
15B
330
1F
100
AcDbEntity
  8
B
  6
FIN
 62
     0
100
AcDbBlockReference
 66
     1
  2
006C0_001_0_3_1
 10
10.51136326789856
 20
191.6856000423431
 30
0.0
  0
ATTRIB
  5
15D
330
15B
100
AcDbEntity
  8
B
  6
FIN
 62
     3
100
AcDbText
 10
5.379178608261087
 20
191.2213428183217
 30
0.0
 40
1.629261306524276
  1
12
 41
0.9200000000000001
  7
ARIAL
 72
     2
 11
7.70833323019923
 21
192.0359734715838
 31
0.0
100
AcDbAttribute
  2
$REPERE
 70
     1
 74
     2
  0
ATTRIB
  5
15E
330
15B
100
AcDbEntity
  8
B
  6
FIN
 62
     1
100
AcDbText
 10
3.98110594172302
 20
191.2213695501009
 30
0.0
 40
1.629261306524276
  1
1-3
 41
0.9200000000000001
  7
ARIAL
 72
     2
 11
7.007575511932372
 21
192.036000203363
 31
0.0
100
AcDbAttribute
  2
$REFTEAB00
 70
     0
 74
     2
  0
SEQEND
  5
26D
330
15B
100
AcDbEntity
  8
B
  6
FIN
 62
     0
  0
INSERT
  5
26C
330
1F
100
AcDbEntity
  8
B
  6
FIN
 62
     0
100
AcDbBlockReference
 66
     1
  2
_I446_KNX_0_3_1
 10
24.52651429176331
 20
90.07575511932371
 30
0.0
  0
ATTRIB
  5
26E
330
26C
100
AcDbEntity
  8
B
  6
FIN
 62
     3
100
AcDbText
 10
12.32545822167058
 20
78.51700958294528
 30
0.0
 40
2.094764536959783
  1
U8
 41
0.9200000000000001
  7
ARIAL
 72
     2
 11
15.76704490184783
 21
79.56439185142517
 31
0.0
100
AcDbAttribute
  2
$ETIQUETTE
 70
     0
 74
     2
  0
ATTRIB
  5
26F
330
26C
100
AcDbEntity
  8
B
  6
FIN
 62
     1
100
AcDbText
 10
23.98581768309909
 20
86.8635623217432
 30
0.0
 40
1.512885498915399
  1
1
 41
0.9200000000000001
  7
ARIAL
 72
     4
 11
24.52651429176331
 21
87.62310101696948
 31
0.0
100
AcDbAttribute
  2
$PL:1
 70
     0
 74
     2
  0
ATTRIB
  5
270
330
26C
100
AcDbEntity
  8
B
  6
FIN
 62
     1
100
AcDbText
 10
30.99339319503146
 20
86.8635623217432
 30
0.0
 40
1.512885498915399
  1
2
 41
0.9200000000000001
  7
ARIAL
 72
     4
 11
31.53408980369567
 21
87.62310101696948
 31
0.0
100
AcDbAttribute
  2
$PL:2
 70
     0
 74
     2
  0
ATTRIB
  5
271
330
26C
100
AcDbEntity
  8
B
  6
FIN
 62
     1
100
AcDbText
 10
23.95875911708166
 20
64.69886547374831
 30
0.0
 40
1.512885498915399
  1
+
 41
0.9200000000000001
  7
ARIAL
 72
     4
 11
24.52651429176331
 21
65.19886071537484
 31
0.0
100
AcDbAttribute
  2
$PL:25
 70
     0
 74
     2
  0
ATTRIB
  5
272
330
26C
100
AcDbEntity
  8
B
  6
FIN
 62
     1
100
AcDbText
 10
31.21033643485547
 20
65.10546635135586
 30
0.0
 40
1.512885498915399
  1
-
 41
0.9200000000000001
  7
ARIAL
 72
     4
 11
31.53408980369567
 21
65.19886071537484
 31
0.0
100
AcDbAttribute
  2
$PL:26
 70
     0
 74
     2
  0
ATTRIB
  5
273
330
26C
100
AcDbEntity
  8
B
  6
FIN
 62
     1
100
AcDbText
 10
37.97391014094639
 20
64.69886547374831
 30
0.0
 40
1.512885498915399
  1
+
 41
0.9200000000000001
  7
ARIAL
 72
     4
 11
38.54166531562804
 21
65.19886071537484
 31
0.0
100
AcDbAttribute
  2
$PL:27
 70
     0
 74
     2
  0
ATTRIB
  5
274
330
26C
100
AcDbEntity
  8
B
  6
FIN
 62
     1
100
AcDbText
 10
45.22548745872023
 20
65.10546635135586
 30
0.0
 40
1.512885498915399
  1
-
 41
0.9200000000000001
  7
ARIAL
 72
     4
 11
45.54924082756043
 21
65.19886071537484
 31
0.0
100
AcDbAttribute
  2
$PL:28
 70
     0
 74
     2
  0
ATTRIB
  5
275
330
26C
100
AcDbEntity
  8
B
  6
FIN
 62
     1
100
AcDbText
 10
38.00096870696383
 20
86.86665826751179
 30
0.0
 40
1.512885498915399
  1
4
 41
0.9200000000000001
  7
ARIAL
 72
     4
 11
38.54166531562804
 21
87.62310101696948
 31
0.0
100
AcDbAttribute
  2
$PL:3
 70
     0
 74
     2
  0
ATTRIB
  5
276
330
26C
100
AcDbEntity
  8
B
  6
FIN
 62
     1
100
AcDbText
 10
45.00854421889622
 20
86.88987786077618
 30
0.0
 40
1.512885498915399
  1
5
 41
0.9200000000000001
  7
ARIAL
 72
     4
 11
45.54924082756043
 21
87.62310101696948
 31
0.0
100
AcDbAttribute
  2
$PL:4
 70
     0
 74
     2
  0
ATTRIB
  5
277
330
26C
100
AcDbEntity
  8
B
  6
FIN
 62
     1
100
AcDbText
 10
59.02369524276096
 20
86.87697808674041
 30
0.0
 40
1.512885498915399
  1
3
 41
0.9200000000000001
  7
ARIAL
 72
     4
 11
59.56439185142517
 21
87.62310101696948
 31
0.0
100
AcDbAttribute
  2
$PL:5
 70
     0
 74
     2
  0
ATTRIB
  5
278
330
26C
100
AcDbEntity
  8
B
  6
FIN
 62
     1
100
AcDbText
 10
22.47958274504318
 20
75.24598012514163
 30
0.0
 40
1.629261306524276
  1
5WG1528-1AB02
 41
0.9200000000000001
  7
ARIAL
 72
     2
 11
38.89204542781363
 21
76.06061077840377
 31
0.0
100
AcDbAttribute
  2
CODE
 70
     0
 74
     2
  0
ATTRIB
  5
279
330
26C
100
AcDbEntity
  8
B
  6
FIN
 62
     1
100
AcDbText
 10
6.342046084891823
 20
75.59635355438242
 30
0.0
 40
1.629261306524276
  1
SIEMENS
 41
0.9200000000000001
  7
ARIAL
 72
     2
 11
15.76704490184783
 21
76.41098420764456
 31
0.0
100
AcDbAttribute
  2
FABRICANT
 70
     0
 74
     2
  0
ATTRIB
  5
27A
330
26C
100
AcDbEntity
  8
B
  6
FIN
 62
     1
100
AcDbText
 10
4.5322990783815
 20
67.88802450102368
 30
0.0
 40
1.629261306524276
  1
@I446.@IM
 41
0.9200000000000001
  7
ARIAL
 72
     2
 11
15.76704490184783
 21
68.70265515428582
 31
0.0
100
AcDbAttribute
  2
SYMBOLE
 70
     1
 74
     2
  0
SEQEND
  5
27C
330
26C
100
AcDbEntity
  8
B
  6
FIN
 62
     0
  0
INSERT
  5
27B
330
1F
100
AcDbEntity
  8
B
  6
FIN
 62
     0
100
AcDbBlockReference
 66
     1
  2
006C0_001_0_3_1
 10
31.53408980369567
 20
184.6780245304108
 30
0.0
  0
ATTRIB
  5
27D
330
27B
100
AcDbEntity
  8
B
  6
FIN
 62
     3
100
AcDbText
 10
26.4019043086901
 20
184.2137673063895
 30
0.0
 40
1.629261306524276
  1
11
 41
0.9200000000000001
  7
ARIAL
 72
     2
 11
28.73105893062825
 21
185.0283979596516
 31
0.0
100
AcDbAttribute
  2
$REPERE
 70
     1
 74
     2
  0
ATTRIB
  5
27E
330
27B
100
AcDbEntity
  8
B
  6
FIN
 62
     1
100
AcDbText
 10
28.50762023348632
 20
187.7175817941347
 30
0.0
 40
1.629261306524276
  1
1-3
 41
0.9200000000000001
  7
ARIAL
 72
     2
 11
31.53408980369567
 21
188.5322124473968
 31
0.0
100
AcDbAttribute
  2
$REFTEAB00
 70
     0
 74
     2
  0
SEQEND
  5
2C8
330
27B
100
AcDbEntity
  8
B
  6
FIN
 62
     0
  0
INSERT
  5
2C7
330
1F
100
AcDbEntity
  8
B
  6
FIN
 62
     0
100
AcDbBlockReference
 66
     1
  2
X12C0_X01_0_3_1
 10
38.54166531562804
 20
174.1666612625121
 30
0.0
  0
ATTRIB
  5
2C9
330
2C7
100
AcDbEntity
  8
B
  6
FIN
 62
     3
100
AcDbText
 10
39.94317908142557
 20
175.6883089039954
 30
0.0
 40
1.86201292174203
  1
15
 41
0.9200000000000001
  7
ARIAL
 11
39.94317908142557
 21
176.6193153648664
 31
0.0
100
AcDbAttribute
  2
$BORNE
 70
     0
 74
     2
  0
ATTRIB
  5
2CA
330
2C7
100
AcDbEntity
  8
B
  6
FIN
 62
     3
100
AcDbText
 10
34.21300627053538
 20
175.6883089039954
 30
0.0
 40
1.86201292174203
  1
X2
 41
0.9200000000000001
  7
ARIAL
 72
     2
 11
37.14015154983053
 21
176.6193153648664
 31
0.0
100
AcDbAttribute
  2
$NOMCOMP
 70
     0
 74
     2
  0
SEQEND
  5
2E0
330
2C7
100
AcDbEntity
  8
B
  6
FIN
 62
     0
  0
INSERT
  5
2DF
330
1F
100
AcDbEntity
  8
B
  6
FIN
 62
     0
100
AcDbBlockReference
 66
     1
  2
H10C0N_H01_0_3_1
 10
49.05302858352661
 20
153.143934726715
 30
0.0
 50
90.0
  0
ATTRIB
  5
2E1
330
2DF
100
AcDbEntity
  8
B
  6
FIN
 62
     4
100
AcDbText
 10
57.46694345275027
 20
148.4751696200251
 30
0.0
 40
1.629261306524276
  1
V
 41
0.9200000000000001
  7
ARIAL
 72
     2
 11
58.86361826116445
 21
149.2898002732873
 31
0.0
100
AcDbAttribute
  2
UNITE_UE
 70
     0
 74
     2
  0
ATTRIB
  5
2E2
330
2DF
100
AcDbEntity
  8
B
  6
FIN
 62
     3
100
AcDbText
 10
46.66257555696128
 20
148.2424180048074
 30
0.0
 40
2.094764536959783
  1
H1
 41
0.9200000000000001
  7
ARIAL
 72
     2
 11
50.10416223713854
 21
149.2898002732873
 31
0.0
100
AcDbAttribute
  2
$NOMCOMP
 70
     0
 74
     2
  0
ATTRIB
  5
2E3
330
2DF
100
AcDbEntity
  8
B
  6
FIN
 62
     1
100
AcDbText
 10
47.47631473721913
 20
154.3145592039713
 30
0.0
 40
1.512885498915399
  1
X1
 41
0.9200000000000001
  7
ARIAL
 11
47.47631473721913
 21
155.071001953429
 31
0.0
100
AcDbAttribute
  2
$PL:1
 70
     0
 74
     2
  0
ATTRIB
  5
2E4
330
2DF
100
AcDbEntity
  8
B
  6
FIN
 62
     1
100
AcDbText
 10
56.0606007539866
 20
154.3145592039713
 30
0.0
 40
1.512885498915399
  1
X2
 41
0.9200000000000001
  7
ARIAL
 11
56.0606007539866
 21
155.071001953429
 31
0.0
100
AcDbAttribute
  2
$PL:2
 70
     0
 74
     2
  0
ATTRIB
  5
2E5
330
2DF
100
AcDbEntity
  8
B
  6
FIN
 62
     4
100
AcDbText
 10
61.25496944367885
 20
148.2434721623347
 30
0.0
 40
1.629261306524276
  1
V
 50
90.0
 41
0.9200000000000001
  7
ARIAL
 72
     2
 11
60.44033879041672
 21
149.6401469707488
 31
0.0
100
AcDbAttribute
  2
TYPE
 70
     1
 74
     2
  0
ATTRIB
  5
2E6
330
2DF
100
AcDbEntity
  8
B
  6
FIN
 62
     1
100
AcDbText
 10
53.26764575281249
 20
148.2999561736255
 30
0.0
 40
1.629261306524276
  1
230
 41
0.9200000000000001
  7
ARIAL
 72
     2
 11
56.76137768571971
 21
149.1145868268876
 31
0.0
100
AcDbAttribute
  2
UE
 70
     0
 74
     2
  0
SEQEND
  5
360
330
2DF
100
AcDbEntity
  8
B
  6
FIN
 62
     0
  0
INSERT
  5
35F
330
1F
100
AcDbEntity
  8
B
  6
FIN
 62
     0
100
AcDbBlockReference
 66
     1
  2
_I452_KNX_0_3_1
 10
91.09848165512085
 20
90.07575511932371
 30
0.0
  0
ATTRIB
  5
361
330
35F
100
AcDbEntity
  8
B
  6
FIN
 62
     3
100
AcDbText
 10
78.89742558502812
 20
78.51700958294528
 30
0.0
 40
2.094764536959783
  1
U6
 41
0.9200000000000001
  7
ARIAL
 72
     2
 11
82.33901226520536
 21
79.56439185142517
 31
0.0
100
AcDbAttribute
  2
$ETIQUETTE
 70
     0
 74
     2
  0
ATTRIB
  5
362
330
35F
100
AcDbEntity
  8
B
  6
FIN
 62
     1
100
AcDbText
 10
90.39638307372106
 20
86.86665826751179
 30
0.0
 40
1.512885498915399
  1
N
 41
0.9200000000000001
  7
ARIAL
 72
     4
 11
91.09848165512085
 21
87.62310101696948
 31
0.0
100
AcDbAttribute
  2
$PL:1
 70
     0
 74
     2
  0
ATTRIB
  5
363
330
35F
100
AcDbEntity
  8
B
  6
FIN
 62
     1
100
AcDbText
 10
203.9204367045204
 20
86.86665826751179
 30
0.0
 40
1.512885498915399
  1
L2
 41
0.9200000000000001
  7
ARIAL
 11
203.9204367045204
 21
87.62310101696948
 31
0.0
100
AcDbAttribute
  2
$PL:10
 70
     0
 74
     2
  0
ATTRIB
  5
364
330
35F
100
AcDbEntity
  8
B
  6
FIN
 62
     1
100
AcDbText
 10
217.9355877283851
 20
86.86665826751179
 30
0.0
 40
1.512885498915399
  1
C-up
 41
0.9200000000000001
  7
ARIAL
 11
217.9355877283851
 21
87.62310101696948
 31
0.0
100
AcDbAttribute
  2
$PL:11
 70
     0
 74
     2
  0
ATTRIB
  5
365
330
35F
100
AcDbEntity
  8
B
  6
FIN
 62
     1
100
AcDbText
 10
238.9583142641823
 20
86.86665826751179
 30
0.0
 40
1.512885498915399
  1
C-down
 41
0.9200000000000001
  7
ARIAL
 11
238.9583142641823
 21
87.62310101696948
 31
0.0
100
AcDbAttribute
  2
$PL:12
 70
     0
 74
     2
  0
ATTRIB
  5
366
330
35F
100
AcDbEntity
  8
B
  6
FIN
 62
     1
100
AcDbText
 10
252.973465288047
 20
86.86665826751179
 30
0.0
 40
1.512885498915399
  1
D-up
 41
0.9200000000000001
  7
ARIAL
 11
252.973465288047
 21
87.62310101696948
 31
0.0
100
AcDbAttribute
  2
$PL:13
 70
     0
 74
     2
  0
ATTRIB
  5
367
330
35F
100
AcDbEntity
  8
B
  6
FIN
 62
     1
100
AcDbText
 10
273.9961918238441
 20
86.86665826751179
 30
0.0
 40
1.512885498915399
  1
D-down
 41
0.9200000000000001
  7
ARIAL
 11
273.9961918238441
 21
87.62310101696948
 31
0.0
100
AcDbAttribute
  2
$PL:14
 70
     0
 74
     2
  0
ATTRIB
  5
368
330
35F
100
AcDbEntity
  8
B
  6
FIN
 62
     1
100
AcDbText
 10
188.5024402407742
 20
86.86665826751179
 30
0.0
 40
1.512885498915399
  1
N
 41
0.9200000000000001
  7
ARIAL
 72
     4
 11
189.204538822174
 21
87.62310101696948
 31
0.0
100
AcDbAttribute
  2
$PL:2
 70
     0
 74
     2
  0
ATTRIB
  5
369
330
35F
100
AcDbEntity
  8
B
  6
FIN
 62
     1
100
AcDbText
 10
90.5307264804392
 20
64.69886547374831
 30
0.0
 40
1.512885498915399
  1
+
 41
0.9200000000000001
  7
ARIAL
 72
     4
 11
91.09848165512085
 21
65.19886071537484
 31
0.0
100
AcDbAttribute
  2
$PL:25
 70
     0
 74
     2
  0
ATTRIB
  5
36A
330
35F
100
AcDbEntity
  8
B
  6
FIN
 62
     1
100
AcDbText
 10
97.78230379821302
 20
65.10546635135586
 30
0.0
 40
1.512885498915399
  1
-
 41
0.9200000000000001
  7
ARIAL
 72
     4
 11
98.10605716705323
 21
65.19886071537484
 31
0.0
100
AcDbAttribute
  2
$PL:26
 70
     0
 74
     2
  0
ATTRIB
  5
36B
330
35F
100
AcDbEntity
  8
B
  6
FIN
 62
     1
100
AcDbText
 10
104.5458775043039
 20
64.69886547374831
 30
0.0
 40
1.512885498915399
  1
+
 41
0.9200000000000001
  7
ARIAL
 72
     4
 11
105.1136326789855
 21
65.19886071537484
 31
0.0
100
AcDbAttribute
  2
$PL:27
 70
     0
 74
     2
  0
ATTRIB
  5
36C
330
35F
100
AcDbEntity
  8
B
  6
FIN
 62
     1
100
AcDbText
 10
111.7974548220778
 20
65.10546635135586
 30
0.0
 40
1.512885498915399
  1
-
 41
0.9200000000000001
  7
ARIAL
 72
     4
 11
112.121208190918
 21
65.19886071537484
 31
0.0
100
AcDbAttribute
  2
$PL:28
 70
     0
 74
     2
  0
ATTRIB
  5
36D
330
35F
100
AcDbEntity
  8
B
  6
FIN
 62
     1
100
AcDbText
 10
97.0246639497248
 20
86.8635623217432
 30
0.0
 40
1.512885498915399
  1
L1
 41
0.9200000000000001
  7
ARIAL
 72
     4
 11
98.10605716705323
 21
87.62310101696948
 31
0.0
100
AcDbAttribute
  2
$PL:3
 70
     0
 74
     2
  0
ATTRIB
  5
36E
330
35F
100
AcDbEntity
  8
B
  6
FIN
 62
     1
100
AcDbText
 10
105.8143929033568
 20
86.86665826751179
 30
0.0
 40
1.512885498915399
  1
L1
 41
0.9200000000000001
  7
ARIAL
 11
105.8143929033568
 21
87.62310101696948
 31
0.0
100
AcDbAttribute
  2
$PL:4
 70
     0
 74
     2
  0
ATTRIB
  5
36F
330
35F
100
AcDbEntity
  8
B
  6
FIN
 62
     1
100
AcDbText
 10
119.8295439272215
 20
86.86665826751179
 30
0.0
 40
1.512885498915399
  1
A-up
 41
0.9200000000000001
  7
ARIAL
 11
119.8295439272215
 21
87.62310101696948
 31
0.0
100
AcDbAttribute
  2
$PL:5
 70
     0
 74
     2
  0
ATTRIB
  5
370
330
35F
100
AcDbEntity
  8
B
  6
FIN
 62
     1
100
AcDbText
 10
140.8522704630185
 20
86.86665826751179
 30
0.0
 40
1.512885498915399
  1
A-down
 41
0.9200000000000001
  7
ARIAL
 11
140.8522704630185
 21
87.62310101696948
 31
0.0
100
AcDbAttribute
  2
$PL:6
 70
     0
 74
     2
  0
ATTRIB
  5
371
330
35F
100
AcDbEntity
  8
B
  6
FIN
 62
     1
100
AcDbText
 10
154.8674214868834
 20
86.86665826751179
 30
0.0
 40
1.512885498915399
  1
B-up
 41
0.9200000000000001
  7
ARIAL
 11
154.8674214868834
 21
87.62310101696948
 31
0.0
100
AcDbAttribute
  2
$PL:7
 70
     0
 74
     2
  0
ATTRIB
  5
372
330
35F
100
AcDbEntity
  8
B
  6
FIN
 62
     1
100
AcDbText
 10
175.8901346567909
 20
86.86665826751179
 30
0.0
 40
1.512885498915399
  1
B-down
 41
0.9200000000000001
  7
ARIAL
 11
175.8901346567909
 21
87.62310101696948
 31
0.0
100
AcDbAttribute
  2
$PL:8
 70
     0
 74
     2
  0
ATTRIB
  5
373
330
35F
100
AcDbEntity
  8
B
  6
FIN
 62
     1
100
AcDbText
 10
195.130721116778
 20
86.8635623217432
 30
0.0
 40
1.512885498915399
  1
L2
 41
0.9200000000000001
  7
ARIAL
 72
     4
 11
196.2121143341064
 21
87.62310101696948
 31
0.0
100
AcDbAttribute
  2
$PL:9
 70
     0
 74
     2
  0
ATTRIB
  5
374
330
35F
100
AcDbEntity
  8
B
  6
FIN
 62
     1
100
AcDbText
 10
262.1386639165413
 20
64.73461685724307
 30
0.0
 40
1.629261306524276
  1
5WG1523-1AB04
 41
0.9200000000000001
  7
ARIAL
 72
     2
 11
278.5511265993118
 21
65.54924751050521
 31
0.0
100
AcDbAttribute
  2
CODE
 70
     0
 74
     2
  0
ATTRIB
  5
375
330
35F
100
AcDbEntity
  8
B
  6
FIN
 62
     1
100
AcDbText
 10
72.91401344824935
 20
75.59635355438242
 30
0.0
 40
1.629261306524276
  1
SIEMENS
 41
0.9200000000000001
  7
ARIAL
 72
     2
 11
82.33901226520536
 21
76.41098420764456
 31
0.0
100
AcDbAttribute
  2
FABRICANT
 70
     0
 74
     2
  0
ATTRIB
  5
376
330
35F
100
AcDbEntity
  8
B
  6
FIN
 62
     1
100
AcDbText
 10
71.68604386925562
 20
67.88802450102368
 30
0.0
 40
1.629261306524276
  1
@I452@IM
 41
0.9200000000000001
  7
ARIAL
 72
     2
 11
82.33901226520536
 21
68.70265515428582
 31
0.0
100
AcDbAttribute
  2
SYMBOLE
 70
     1
 74
     2
  0
SEQEND
  5
378
330
35F
100
AcDbEntity
  8
B
  6
FIN
 62
     0
  0
INSERT
  5
377
330
1F
100
AcDbEntity
  8
B
  6
FIN
 62
     0
100
AcDbBlockReference
 66
     1
  2
X12C0_X01_0_3_1
 10
91.09848165512085
 20
174.1666612625121
 30
0.0
  0
ATTRIB
  5
379
330
377
100
AcDbEntity
  8
B
  6
FIN
 62
     3
100
AcDbText
 10
92.49999542091835
 20
175.6883089039954
 30
0.0
 40
1.86201292174203
  1
16
 41
0.9200000000000001
  7
ARIAL
 11
92.49999542091835
 21
176.6193153648664
 31
0.0
100
AcDbAttribute
  2
$BORNE
 70
     0
 74
     2
  0
ATTRIB
  5
37A
330
377
100
AcDbEntity
  8
B
  6
FIN
 62
     3
100
AcDbText
 10
86.76982261002818
 20
175.6883089039954
 30
0.0
 40
1.86201292174203
  1
X2
 41
0.9200000000000001
  7
ARIAL
 72
     2
 11
89.69696788932333
 21
176.6193153648664
 31
0.0
100
AcDbAttribute
  2
$NOMCOMP
 70
     0
 74
     2
  0
SEQEND
  5
39B
330
377
100
AcDbEntity
  8
B
  6
FIN
 62
     0
  0
INSERT
  5
39A
330
1F
100
AcDbEntity
  8
B
  6
FIN
 62
     0
100
AcDbBlockReference
 66
     1
  2
M04P4N_2_M01_0_3_1
 10
105.1136326789855
 20
128.6174204349518
 30
0.0
  0
ATTRIB
  5
39C
330
39A
100
AcDbEntity
  8
B
  6
FIN
 62
     4
100
AcDbText
 10
106.9993974513208
 20
109.2327173482467
 30
0.0
 40
1.629261306524276
  1
230 V
 41
0.9200000000000001
  7
ARIAL
 72
     2
 11
112.4715816201588
 21
110.0473480015089
 31
0.0
100
AcDbAttribute
  2
IN
 70
     0
 74
     2
  0
ATTRIB
  5
39D
330
39A
100
AcDbEntity
  8
B
  6
FIN
 62
     4
100
AcDbText
 10
107.4652661327352
 20
106.2544964190865
 30
0.0
 40
1.629261306524276
  1
30W
 41
0.9200000000000001
  7
ARIAL
 72
     2
 11
111.7708280787324
 21
107.0691270723487
 31
0.0
100
AcDbAttribute
  2
POWER
 70
     0
 74
     2
  0
ATTRIB
  5
39E
330
39A
100
AcDbEntity
  8
B
  6
FIN
 62
     1
100
AcDbText
 10
105.989579617977
 20
128.9121113391059
 30
0.0
 40
1.512885498915399
  1
N
 41
0.9200000000000001
  7
ARIAL
 11
105.989579617977
 21
129.6685540885637
 31
0.0
100
AcDbAttribute
  2
$CP:1
 70
     0
 74
     2
  0
ATTRIB
  5
39F
330
39A
100
AcDbEntity
  8
B
  6
FIN
 62
     1
100
AcDbText
 10
112.9971551299095
 20
128.9121113391059
 30
0.0
 40
1.512885498915399
  1
U
 41
0.9200000000000001
  7
ARIAL
 11
112.9971551299095
 21
129.6685540885637
 31
0.0
100
AcDbAttribute
  2
$CP:2
 70
     0
 74
     2
  0
ATTRIB
  5
3A0
330
39A
100
AcDbEntity
  8
B
  6
FIN
 62
     1
100
AcDbText
 10
127.0123061537743
 20
128.9121113391059
 30
0.0
 40
1.512885498915399
  1
W
 41
0.9200000000000001
  7
ARIAL
 11
127.0123061537743
 21
129.6685540885637
 31
0.0
100
AcDbAttribute
  2
$CP:4
 70
     0
 74
     2
  0
ATTRIB
  5
3A1
330
39A
100
AcDbEntity
  8
B
  6
FIN
 62
     3
100
AcDbText
 10
105.9285630231875
 20
113.2045003474768
 30
0.0
 40
2.094764536959783
  1
M2
 41
0.9200000000000001
  7
ARIAL
 72
     2
 11
109.6685607715085
 21
114.2518826159567
 31
0.0
100
AcDbAttribute
  2
$REPETIQ
 70
     0
 74
     2
  0
SEQEND
  5
3A3
330
39A
100
AcDbEntity
  8
B
  6
FIN
 62
     0
  0
INSERT
  5
3A2
330
1F
100
AcDbEntity
  8
B
  6
FIN
 62
     0
100
AcDbBlockReference
 66
     1
  2
X12C0_X01_0_3_1
 10
105.1136326789855
 20
160.1515102386474
 30
0.0
  0
ATTRIB
  5
3A4
330
3A2
100
AcDbEntity
  8
B
  6
FIN
 62
     3
100
AcDbText
 10
106.5151464447831
 20
161.6731578801306
 30
0.0
 40
1.86201292174203
  1
17
 41
0.9200000000000001
  7
ARIAL
 11
106.5151464447831
 21
162.6041643410016
 31
0.0
100
AcDbAttribute
  2
$BORNE
 70
     0
 74
     2
  0
ATTRIB
  5
3A5
330
3A2
100
AcDbEntity
  8
B
  6
FIN
 62
     3
100
AcDbText
 10
100.7849736338929
 20
161.6731578801306
 30
0.0
 40
1.86201292174203
  1
X2
 41
0.9200000000000001
  7
ARIAL
 72
     2
 11
103.7121189131881
 21
162.6041643410016
 31
0.0
100
AcDbAttribute
  2
$NOMCOMP
 70
     0
 74
     2
  0
SEQEND
  5
3A7
330
3A2
100
AcDbEntity
  8
B
  6
FIN
 62
     0
  0
INSERT
  5
3A6
330
1F
100
AcDbEntity
  8
B
  6
FIN
 62
     0
100
AcDbBlockReference
 66
     1
  2
X12C0_X01_0_3_1
 10
112.121208190918
 20
160.1515102386474
 30
0.0
  0
ATTRIB
  5
3A8
330
3A6
100
AcDbEntity
  8
B
  6
FIN
 62
     3
100
AcDbText
 10
113.5227286396603
 20
161.6731578801306
 30
0.0
 40
1.86201292174203
  1
18
 41
0.9200000000000001
  7
ARIAL
 11
113.5227286396603
 21
162.6041643410016
 31
0.0
100
AcDbAttribute
  2
$BORNE
 70
     0
 74
     2
  0
ATTRIB
  5
3A9
330
3A6
100
AcDbEntity
  8
B
  6
FIN
 62
     3
100
AcDbText
 10
107.7925491458253
 20
161.6731578801306
 30
0.0
 40
1.86201292174203
  1
X2
 41
0.9200000000000001
  7
ARIAL
 72
     2
 11
110.7196944251205
 21
162.6041643410016
 31
0.0
100
AcDbAttribute
  2
$NOMCOMP
 70
     1
 74
     2
  0
SEQEND
  5
3AB
330
3A6
100
AcDbEntity
  8
B
  6
FIN
 62
     0
  0
INSERT
  5
3AA
330
1F
100
AcDbEntity
  8
B
  6
FIN
 62
     0
100
AcDbBlockReference
 66
     1
  2
X12C0_X01_0_3_1
 10
126.1363592147827
 20
160.1515102386474
 30
0.0
  0
ATTRIB
  5
3AC
330
3AA
100
AcDbEntity
  8
B
  6
FIN
 62
     3
100
AcDbText
 10
127.537879663525
 20
161.6731578801306
 30
0.0
 40
1.86201292174203
  1
19
 41
0.9200000000000001
  7
ARIAL
 11
127.537879663525
 21
162.6041643410016
 31
0.0
100
AcDbAttribute
  2
$BORNE
 70
     0
 74
     2
  0
ATTRIB
  5
3AD
330
3AA
100
AcDbEntity
  8
B
  6
FIN
 62
     3
100
AcDbText
 10
121.8076934867452
 20
161.6731578801306
 30
0.0
 40
1.86201292174203
  1
X2
 41
0.9200000000000001
  7
ARIAL
 72
     2
 11
124.7348387660403
 21
162.6041643410016
 31
0.0
100
AcDbAttribute
  2
$NOMCOMP
 70
     1
 74
     2
  0
SEQEND
  5
3B6
330
3AA
100
AcDbEntity
  8
B
  6
FIN
 62
     0
  0
INSERT
  5
3B5
330
1F
100
AcDbEntity
  8
B
  6
FIN
 62
     0
100
AcDbBlockReference
  2
T12C0N_T01_0_3_1
 10
129.6401469707489
 20
114.6022694110869
 30
0.0
  0
INSERT
  5
3DA
330
1F
100
AcDbEntity
  8
B
  6
FIN
 62
     0
100
AcDbBlockReference
 66
     1
  2
002C0_000_0_3_1
 10
276.7992327213286
 20
44.52651429176331
 30
0.0
  0
ATTRIB
  5
3DC
330
3DA
100
AcDbEntity
  8
B
  6
FIN
 62
     1
100
AcDbText
 10
274.3500238950744
 20
45.81415595793365
 30
0.0
 40
1.629261306524276
  1
-
 41
0.9200000000000001
  7
ARIAL
 72
     2
 11
275.0473388433456
 21
46.62878661119578
 31
0.0
100
AcDbAttribute
  2
$NUM_EQUI
 70
     0
 74
     2
  0
ATTRIB
  5
3DD
330
3DA
100
AcDbEntity
  8
B
  6
FIN
 62
     3
100
AcDbText
 10
278.6872485887662
 20
44.24512133835918
 30
0.0
 40
1.280133883697645
  1
10
 41
0.9200000000000001
  7
ARIAL
 72
     4
 11
279.6022736188133
 21
44.87689273321269
 31
0.0
100
AcDbAttribute
  2
$REPERE
 70
     1
 74
     2
  0
ATTRIB
  5
3DE
330
3DA
100
AcDbEntity
  8
B
  6
FIN
 62
     1
100
AcDbText
 10
278.7636768597575
 20
44.23422786451484
 30
0.0
 40
1.280133883697645
  1
4-1
 41
0.9200000000000001
  7
ARIAL
 72
     4
 11
279.952647048054
 21
44.87691445278324
 31
0.0
100
AcDbAttribute
  2
$REFTEAB00
 70
     0
 74
     2
  0
SEQEND
  5
3E0
330
3DA
100
AcDbEntity
  8
B
  6
FIN
 62
     0
  0
INSERT
  5
3DF
330
1F
100
AcDbEntity
  8
B
  6
FIN
 62
     0
100
AcDbBlockReference
 66
     1
  2
002C0_000_0_3_1
 10
276.7992327213286
 20
48.03030204772949
 30
0.0
  0
ATTRIB
  5
3E1
330
3DF
100
AcDbEntity
  8
B
  6
FIN
 62
     1
100
AcDbText
 10
273.8244815440312
 20
49.31794538463602
 30
0.0
 40
1.629261306524276
  1
+
 41
0.9200000000000001
  7
ARIAL
 72
     2
 11
275.0473388433456
 21
50.13257603789816
 31
0.0
100
AcDbAttribute
  2
$NUM_EQUI
 70
     0
 74
     2
  0
ATTRIB
  5
3E2
330
3DF
100
AcDbEntity
  8
B
  6
FIN
 62
     3
100
AcDbText
 10
279.1447611037897
 20
47.74891076506156
 30
0.0
 40
1.280133883697645
  1
9
 41
0.9200000000000001
  7
ARIAL
 72
     4
 11
279.6022736188133
 21
48.38068215991507
 31
0.0
100
AcDbAttribute
  2
$REPERE
 70
     1
 74
     2
  0
ATTRIB
  5
3E3
330
3DF
100
AcDbEntity
  8
B
  6
FIN
 62
     1
100
AcDbText
 10
278.7636768597575
 20
47.73801562048102
 30
0.0
 40
1.280133883697645
  1
4-1
 41
0.9200000000000001
  7
ARIAL
 72
     4
 11
279.952647048054
 21
48.38070220874943
 31
0.0
100
AcDbAttribute
  2
$REFTEAB00
 70
     0
 74
     2
  0
SEQEND
  5
3E8
330
3DF
100
AcDbEntity
  8
B
  6
FIN
 62
     0
  0
TEXT
  5
3E4
330
1F
100
AcDbEntity
  8
B
  6
FIN
 62
     7
100
AcDbText
 10
105.814386220412
 20
29.98579477035639
 30
0.0
 40
1.629261306524276
  1
MOTEUR STORE
 41
1.149999999999999
  7
ARIAL
100
AcDbText
  0
TEXT
  5
3E5
330
1F
100
AcDbEntity
  8
B
  6
FIN
 62
     7
100
AcDbText
 10
30.65816291353849
 20
29.98579393498829
 30
0.0
 40
1.629261306524276
  1
VARIATION LAMPE REPAS
 41
1.149999999999999
  7
ARIAL
100
AcDbText
  0
TEXT
  5
3E6
330
1F
100
AcDbEntity
  8
B
  6
FIN
 62
     7
100
AcDbText
 10
61.91013220309287
 20
129.1672998148893
 30
0.0
 40
1.86201292174203
  1
W4
 41
1.149999999999999
  7
ARIAL
100
AcDbText
  0
TEXT
  5
3E7
330
1F
100
AcDbEntity
  8
B
  6
FIN
 62
     7
100
AcDbText
 10
127.044103605066
 20
148.5145653122208
 30
0.0
 40
1.86201292174203
  1
W5
 41
1.149999999999999
  7
ARIAL
100
AcDbText
  0
LWPOLYLINE
  5
417
330
1F
100
AcDbEntity
  8
A
  6
MOYEN
 62
     4
100
AcDbPolyline
 90
        5
 70
     0
 43
0.0
 10
135.2462070461475
 20
191.6856000423431
 10
133.143934726715
 20
192.5265091371897
 10
133.5643888564543
 20
191.6856000423431
 10
133.143934726715
 20
190.8446909474965
 10
135.2462070461475
 20
191.6856000423431
  0
LINE
  5
418
330
1F
100
AcDbEntity
  8
A
  6
MOYEN
 62
     4
100
AcDbLine
 10
133.143934726715
 20
191.6856000423431
 30
0.0
 11
133.5643888564543
 21
191.6856000423431
 31
0.0
  0
LWPOLYLINE
  5
41D
330
1F
100
AcDbEntity
  8
A
  6
MOYEN
 62
     4
100
AcDbPolyline
 90
        5
 70
     0
 43
0.0
 10
135.2462070461475
 20
184.6780245304108
 10
133.143934726715
 20
185.5189336252573
 10
133.5643888564543
 20
184.6780245304108
 10
133.143934726715
 20
183.8371154355641
 10
135.2462070461475
 20
184.6780245304108
  0
LINE
  5
41E
330
1F
100
AcDbEntity
  8
A
  6
MOYEN
 62
     4
100
AcDbLine
 10
133.143934726715
 20
184.6780245304108
 30
0.0
 11
133.5643888564543
 21
184.6780245304108
 31
0.0
  0
TEXT
  5
425
330
1F
100
AcDbEntity
  8
A
  6
FIN
100
AcDbText
 10
138.1265409644591
 20
191.6031836180319
 30
0.0
 40
1.163758076088768
  1
4-5
 41
1.149999999999999
  7
ARIAL
 72
     4
 11
139.4776434511597
 21
192.1751397529718
 31
0.0
100
AcDbText
  0
TEXT
  5
42B
330
1F
100
AcDbEntity
  8
A
  6
FIN
100
AcDbText
 10
137.9284574973962
 20
184.8701814355727
 30
0.0
 40
1.163758076088768
  1
4-6
 41
1.149999999999999
  7
ARIAL
 72
     4
 11
139.2795599840968
 21
185.4445190672578
 31
0.0
100
AcDbText
  0
ENDSEC
  0
SECTION
  2
OBJECTS
  0
DICTIONARY
  5
C
330
0
100
AcDbDictionary
281
     1
  3
ACAD_GROUP
350
D
  3
ACAD_IMAGE_DICT
350
79
  3
ACAD_IMAGE_VARS
350
7B
  3
ACAD_LAYOUT
350
1A
  3
ACAD_MLINESTYLE
350
17
  3
ACAD_PLOTSETTINGS
350
19
  3
ACAD_PLOTSTYLENAME
350
40F
  3
ACDBHEADERROUNDTRIPXREC
350
430
  3
AcDbVariableDictionary
350
42D
  0
IMAGEDEF_REACTOR
  5
7D
330
7C
100
AcDbRasterImageDefReactor
 90
        2
330
7C
  0
DICTIONARY
  5
D
102
{ACAD_REACTORS
330
C
102
}
330
C
100
AcDbDictionary
281
     1
  0
DICTIONARY
  5
79
102
{ACAD_REACTORS
330
C
102
}
330
C
100
AcDbDictionary
281
     1
  3
PETIT_LOGO_ERM_BLEU_ET_ORA
350
7A
  0
RASTERVARIABLES
  5
7B
102
{ACAD_REACTORS
330
C
102
}
330
C
100
AcDbRasterVariables
 90
        0
 70
     1
 71
     1
 72
     0
  0
DICTIONARY
  5
1A
102
{ACAD_REACTORS
330
C
102
}
330
C
100
AcDbDictionary
281
     1
  3
Model
350
411
  3
Présentation1
350
412
  0
DICTIONARY
  5
17
102
{ACAD_REACTORS
330
C
102
}
330
C
100
AcDbDictionary
281
     1
  3
STANDARD
350
18
  0
DICTIONARY
  5
19
102
{ACAD_REACTORS
330
C
102
}
330
C
100
AcDbDictionary
281
     1
  0
ACDBDICTIONARYWDFLT
  5
40F
102
{ACAD_REACTORS
330
C
102
}
330
C
100
AcDbDictionary
281
     1
  3
Normal
350
410
100
AcDbDictionaryWithDefault
340
410
  0
DICTIONARY
  5
430
102
{ACAD_REACTORS
330
C
102
}
330
C
100
AcDbDictionary
281
     1
  3
CEPSNTYPE
350
43A
  3
FINGERPRINTGUID
350
43B
  3
HYPERLINKBASE
350
433
  3
INSUNITS
350
439
  3
LAYOUTDICT
350
435
  3
LWETCUNION
350
438
  3
PLOTSETDICT
350
436
  3
PLOTSTYLNAMDICT
350
437
  3
PSVPSCALE
350
43D
  3
PUCSBASE
350
440
  3
PUCSORGBACK
350
446
  3
PUCSORGBOTTOM
350
442
  3
PUCSORGFRONT
350
445
  3
PUCSORGLEFT
350
443
  3
PUCSORGRIGHT
350
444
  3
PUCSORGTOP
350
441
  3
PUCSORTHOREF
350
43E
  3
PUCSORTHOVIEW
350
43F
  3
STYLESHEET
350
434
  3
TSTACKALIGN
350
431
  3
TSTACKSIZE
350
432
  3
UCSBASE
350
449
  3
UCSORGBACK
350
44F
  3
UCSORGBOTTOM
350
44B
  3
UCSORGFRONT
350
44E
  3
UCSORGLEFT
350
44C
  3
UCSORGRIGHT
350
44D
  3
UCSORGTOP
350
44A
  3
UCSORTHOREF
350
447
  3
UCSORTHOVIEW
350
448
  3
VERSIONGUID
350
43C
  0
DICTIONARY
  5
42D
102
{ACAD_REACTORS
330
C
102
}
330
C
100
AcDbDictionary
281
     1
  3
DIMASSOC
350
42E
  0
IMAGEDEF
  5
7A
102
{ACAD_REACTORS
330
79
330
7D
102
}
330
79
100
AcDbRasterImageDef
 90
        0
  1
PETIT LOGO ERM BLEU ET ORANGE.JPG
 10
367.0
 20
137.0
 11
0.002724795640327
 21
0.002724795640327
280
     1
281
     1
  0
LAYOUT
  5
411
102
{ACAD_REACTORS
330
1A
102
}
330
1A
100
AcDbPlotSettings
  1

  2
\\PATRICK\HP LaserJet 6L
  4

  6

 40
0.0
 41
0.0
 42
0.0
 43
0.0
 44
0.0
 45
0.0
 46
0.0
 47
0.0
 48
0.0
 49
0.0
140
0.0
141
0.0
142
1.0
143
1.0
 70
  1712
 72
     0
 73
     0
 74
     0
  7

 75
     0
147
1.0
148
0.0
149
0.0
100
AcDbLayout
  1
Model
 70
     1
 71
     0
 10
0.0
 20
0.0
 11
12.0
 21
9.0
 12
0.0
 22
0.0
 32
0.0
 14
0.0
 24
0.0
 34
0.0
 15
0.0
 25
0.0
 35
0.0
146
0.0
 13
0.0
 23
0.0
 33
0.0
 16
1.0
 26
0.0
 36
0.0
 17
0.0
 27
1.0
 37
0.0
 76
     0
330
1F
  0
LAYOUT
  5
412
102
{ACAD_REACTORS
330
1A
102
}
330
1A
100
AcDbPlotSettings
  1

  2
\\PATRICK\HP LaserJet 6L
  4

  6

 40
0.0
 41
0.0
 42
0.0
 43
0.0
 44
0.0
 45
0.0
 46
0.0
 47
0.0
 48
0.0
 49
0.0
140
0.0
141
0.0
142
1.0
143
1.0
 70
   688
 72
     0
 73
     0
 74
     5
  7

 75
    16
147
1.0
148
0.0
149
0.0
100
AcDbLayout
  1
Présentation1
 70
     1
 71
     1
 10
0.0
 20
0.0
 11
297.0
 21
210.0
 12
0.0
 22
0.0
 32
0.0
 14
0.0
 24
0.0
 34
0.0
 15
297.0
 25
210.0
 35
0.0
146
0.0
 13
0.0
 23
0.0
 33
0.0
 16
1.0
 26
0.0
 36
0.0
 17
0.0
 27
1.0
 37
0.0
 76
     0
330
1B
  0
MLINESTYLE
  5
18
102
{ACAD_REACTORS
330
17
102
}
330
17
100
AcDbMlineStyle
  2
STANDARD
 70
     0
  3

 62
   256
 51
90.0
 52
90.0
 71
     2
 49
0.5
 62
   256
  6
BYLAYER
 49
-0.5
 62
   256
  6
BYLAYER
  0
ACDBPLACEHOLDER
  5
410
102
{ACAD_REACTORS
330
40F
102
}
330
40F
  0
XRECORD
  5
43A
102
{ACAD_REACTORS
330
430
102
}
330
430
100
AcDbXrecord
280
     1
 90
        0
  0
XRECORD
  5
43B
102
{ACAD_REACTORS
330
430
102
}
330
430
100
AcDbXrecord
280
     1
  1
{DF0051A4-2E97-46F7-A6CD-E9757532D863}
  0
XRECORD
  5
433
102
{ACAD_REACTORS
330
430
102
}
330
430
100
AcDbXrecord
280
     1
  1

  0
XRECORD
  5
439
102
{ACAD_REACTORS
330
430
102
}
330
430
100
AcDbXrecord
280
     1
 90
        0
  0
XRECORD
  5
435
102
{ACAD_REACTORS
330
430
102
}
330
430
100
AcDbXrecord
280
     1
340
1A
  0
XRECORD
  5
438
102
{ACAD_REACTORS
330
430
102
}
330
430
100
AcDbXrecord
280
     1
 90
    10781
  0
XRECORD
  5
436
102
{ACAD_REACTORS
330
430
102
}
330
430
100
AcDbXrecord
280
     1
340
19
  0
XRECORD
  5
437
102
{ACAD_REACTORS
330
430
102
}
330
430
100
AcDbXrecord
280
     1
340
40F
  0
XRECORD
  5
43D
102
{ACAD_REACTORS
330
430
102
}
330
430
100
AcDbXrecord
280
     1
 40
0.0
  0
XRECORD
  5
440
102
{ACAD_REACTORS
330
430
102
}
330
430
100
AcDbXrecord
280
     1
340
0
  0
XRECORD
  5
446
102
{ACAD_REACTORS
330
430
102
}
330
430
100
AcDbXrecord
280
     1
 10
0.0
 20
0.0
 30
0.0
  0
XRECORD
  5
442
102
{ACAD_REACTORS
330
430
102
}
330
430
100
AcDbXrecord
280
     1
 10
0.0
 20
0.0
 30
0.0
  0
XRECORD
  5
445
102
{ACAD_REACTORS
330
430
102
}
330
430
100
AcDbXrecord
280
     1
 10
0.0
 20
0.0
 30
0.0
  0
XRECORD
  5
443
102
{ACAD_REACTORS
330
430
102
}
330
430
100
AcDbXrecord
280
     1
 10
0.0
 20
0.0
 30
0.0
  0
XRECORD
  5
444
102
{ACAD_REACTORS
330
430
102
}
330
430
100
AcDbXrecord
280
     1
 10
0.0
 20
0.0
 30
0.0
  0
XRECORD
  5
441
102
{ACAD_REACTORS
330
430
102
}
330
430
100
AcDbXrecord
280
     1
 10
0.0
 20
0.0
 30
0.0
  0
XRECORD
  5
43E
102
{ACAD_REACTORS
330
430
102
}
330
430
100
AcDbXrecord
280
     1
340
0
  0
XRECORD
  5
43F
102
{ACAD_REACTORS
330
430
102
}
330
430
100
AcDbXrecord
280
     1
 70
     0
  0
XRECORD
  5
434
102
{ACAD_REACTORS
330
430
102
}
330
430
100
AcDbXrecord
280
     1
  1

  0
XRECORD
  5
431
102
{ACAD_REACTORS
330
430
102
}
330
430
100
AcDbXrecord
280
     1
 90
        1
  0
XRECORD
  5
432
102
{ACAD_REACTORS
330
430
102
}
330
430
100
AcDbXrecord
280
     1
 90
       70
  0
XRECORD
  5
449
102
{ACAD_REACTORS
330
430
102
}
330
430
100
AcDbXrecord
280
     1
340
0
  0
XRECORD
  5
44F
102
{ACAD_REACTORS
330
430
102
}
330
430
100
AcDbXrecord
280
     1
 10
0.0
 20
0.0
 30
0.0
  0
XRECORD
  5
44B
102
{ACAD_REACTORS
330
430
102
}
330
430
100
AcDbXrecord
280
     1
 10
0.0
 20
0.0
 30
0.0
  0
XRECORD
  5
44E
102
{ACAD_REACTORS
330
430
102
}
330
430
100
AcDbXrecord
280
     1
 10
0.0
 20
0.0
 30
0.0
  0
XRECORD
  5
44C
102
{ACAD_REACTORS
330
430
102
}
330
430
100
AcDbXrecord
280
     1
 10
0.0
 20
0.0
 30
0.0
  0
XRECORD
  5
44D
102
{ACAD_REACTORS
330
430
102
}
330
430
100
AcDbXrecord
280
     1
 10
0.0
 20
0.0
 30
0.0
  0
XRECORD
  5
44A
102
{ACAD_REACTORS
330
430
102
}
330
430
100
AcDbXrecord
280
     1
 10
0.0
 20
0.0
 30
0.0
  0
XRECORD
  5
447
102
{ACAD_REACTORS
330
430
102
}
330
430
100
AcDbXrecord
280
     1
340
0
  0
XRECORD
  5
448
102
{ACAD_REACTORS
330
430
102
}
330
430
100
AcDbXrecord
280
     1
 70
     0
  0
XRECORD
  5
43C
102
{ACAD_REACTORS
330
430
102
}
330
430
100
AcDbXrecord
280
     1
  1
{AEA344C0-FD90-4C55-ABE7-AC506981C946}
  0
DICTIONARYVAR
  5
42E
102
{ACAD_REACTORS
330
42D
102
}
330
42D
100
DictionaryVariables
280
     0
  1
1
  0
ENDSEC
  0
EOF
