  0
SECTION
  2
HEADER
  9
$ACADVER
  1
AC1015
  9
$ACADMAINTVER
 70
     6
  9
$DWGCODEPAGE
  3
ANSI_1252
  9
$INSBASE
 10
0.0
 20
0.0
 30
0.0
  9
$EXTMIN
 10
0.0
 20
0.0
 30
0.0
  9
$EXTMAX
 10
297.0000610351563
 20
210.0
 30
0.0
  9
$LIMMIN
 10
0.0
 20
0.0
  9
$LIMMAX
 10
297.0
 20
210.0
  9
$ORTHOMODE
 70
     0
  9
$REGENMODE
 70
     1
  9
$FILLMODE
 70
     1
  9
$QTEXTMODE
 70
     0
  9
$MIRRTEXT
 70
     1
  9
$LTSCALE
 40
15.0
  9
$ATTMODE
 70
     1
  9
$TEXTSIZE
 40
0.2
  9
$TRACEWID
 40
0.05
  9
$TEXTSTYLE
  7
STANDARD
  9
$CLAYER
  8
0
  9
$CELTYPE
  6
BYLAYER
  9
$CECOLOR
 62
   256
  9
$CELTSCALE
 40
1.0
  9
$DISPSILH
 70
     0
  9
$DIMSCALE
 40
1.0
  9
$DIMASZ
 40
0.18
  9
$DIMEXO
 40
0.0625
  9
$DIMDLI
 40
0.38
  9
$DIMRND
 40
0.0
  9
$DIMDLE
 40
0.0
  9
$DIMEXE
 40
0.18
  9
$DIMTP
 40
0.0
  9
$DIMTM
 40
0.0
  9
$DIMTXT
 40
0.18
  9
$DIMCEN
 40
0.09
  9
$DIMTSZ
 40
0.0
  9
$DIMTOL
 70
     0
  9
$DIMLIM
 70
     0
  9
$DIMTIH
 70
     1
  9
$DIMTOH
 70
     1
  9
$DIMSE1
 70
     0
  9
$DIMSE2
 70
     0
  9
$DIMTAD
 70
     0
  9
$DIMZIN
 70
     0
  9
$DIMBLK
  1

  9
$DIMASO
 70
     1
  9
$DIMSHO
 70
     1
  9
$DIMPOST
  1

  9
$DIMAPOST
  1

  9
$DIMALT
 70
     0
  9
$DIMALTD
 70
     2
  9
$DIMALTF
 40
25.4
  9
$DIMLFAC
 40
1.0
  9
$DIMTOFL
 70
     0
  9
$DIMTVP
 40
0.0
  9
$DIMTIX
 70
     0
  9
$DIMSOXD
 70
     0
  9
$DIMSAH
 70
     0
  9
$DIMBLK1
  1

  9
$DIMBLK2
  1

  9
$DIMSTYLE
  2
STANDARD
  9
$DIMCLRD
 70
     0
  9
$DIMCLRE
 70
     0
  9
$DIMCLRT
 70
     0
  9
$DIMTFAC
 40
1.0
  9
$DIMGAP
 40
0.09
  9
$DIMJUST
 70
     0
  9
$DIMSD1
 70
     0
  9
$DIMSD2
 70
     0
  9
$DIMTOLJ
 70
     1
  9
$DIMTZIN
 70
     0
  9
$DIMALTZ
 70
     0
  9
$DIMALTTZ
 70
     0
  9
$DIMUPT
 70
     0
  9
$DIMDEC
 70
     4
  9
$DIMTDEC
 70
     4
  9
$DIMALTU
 70
     2
  9
$DIMALTTD
 70
     2
  9
$DIMTXSTY
  7
STANDARD
  9
$DIMAUNIT
 70
     0
  9
$DIMADEC
 70
     0
  9
$DIMALTRND
 40
0.0
  9
$DIMAZIN
 70
     0
  9
$DIMDSEP
 70
    46
  9
$DIMATFIT
 70
     3
  9
$DIMFRAC
 70
     0
  9
$DIMLDRBLK
  1

  9
$DIMLUNIT
 70
     2
  9
$DIMLWD
 70
    -2
  9
$DIMLWE
 70
    -2
  9
$DIMTMOVE
 70
     0
  9
$LUNITS
 70
     2
  9
$LUPREC
 70
     4
  9
$SKETCHINC
 40
0.1
  9
$FILLETRAD
 40
0.5
  9
$AUNITS
 70
     0
  9
$AUPREC
 70
     0
  9
$MENU
  1
.
  9
$ELEVATION
 40
0.0
  9
$PELEVATION
 40
0.0
  9
$THICKNESS
 40
0.0
  9
$LIMCHECK
 70
     0
  9
$CHAMFERA
 40
0.5
  9
$CHAMFERB
 40
0.5
  9
$CHAMFERC
 40
1.0
  9
$CHAMFERD
 40
0.0
  9
$SKPOLY
 70
     0
  9
$TDCREATE
 40
2454848.442782245
  9
$TDUCREATE
 40
2454848.359448912
  9
$TDUPDATE
 40
2455010.418631076
  9
$TDUUPDATE
 40
2455010.335297743
  9
$TDINDWG
 40
0.0058456829
  9
$TDUSRTIMER
 40
0.0058426736
  9
$USRTIMER
 70
     1
  9
$ANGBASE
 50
0.0
  9
$ANGDIR
 70
     0
  9
$PDMODE
 70
     0
  9
$PDSIZE
 40
0.0
  9
$PLINEWID
 40
0.0
  9
$SPLFRAME
 70
     0
  9
$SPLINETYPE
 70
     6
  9
$SPLINESEGS
 70
     8
  9
$HANDSEED
  5
60E
  9
$SURFTAB1
 70
     6
  9
$SURFTAB2
 70
     6
  9
$SURFTYPE
 70
     6
  9
$SURFU
 70
     6
  9
$SURFV
 70
     6
  9
$UCSBASE
  2

  9
$UCSNAME
  2

  9
$UCSORG
 10
0.0
 20
0.0
 30
0.0
  9
$UCSXDIR
 10
1.0
 20
0.0
 30
0.0
  9
$UCSYDIR
 10
0.0
 20
1.0
 30
0.0
  9
$UCSORTHOREF
  2

  9
$UCSORTHOVIEW
 70
     0
  9
$UCSORGTOP
 10
0.0
 20
0.0
 30
0.0
  9
$UCSORGBOTTOM
 10
0.0
 20
0.0
 30
0.0
  9
$UCSORGLEFT
 10
0.0
 20
0.0
 30
0.0
  9
$UCSORGRIGHT
 10
0.0
 20
0.0
 30
0.0
  9
$UCSORGFRONT
 10
0.0
 20
0.0
 30
0.0
  9
$UCSORGBACK
 10
0.0
 20
0.0
 30
0.0
  9
$PUCSBASE
  2

  9
$PUCSNAME
  2

  9
$PUCSORG
 10
0.0
 20
0.0
 30
0.0
  9
$PUCSXDIR
 10
1.0
 20
0.0
 30
0.0
  9
$PUCSYDIR
 10
0.0
 20
1.0
 30
0.0
  9
$PUCSORTHOREF
  2

  9
$PUCSORTHOVIEW
 70
     0
  9
$PUCSORGTOP
 10
0.0
 20
0.0
 30
0.0
  9
$PUCSORGBOTTOM
 10
0.0
 20
0.0
 30
0.0
  9
$PUCSORGLEFT
 10
0.0
 20
0.0
 30
0.0
  9
$PUCSORGRIGHT
 10
0.0
 20
0.0
 30
0.0
  9
$PUCSORGFRONT
 10
0.0
 20
0.0
 30
0.0
  9
$PUCSORGBACK
 10
0.0
 20
0.0
 30
0.0
  9
$USERI1
 70
     0
  9
$USERI2
 70
     0
  9
$USERI3
 70
     0
  9
$USERI4
 70
     0
  9
$USERI5
 70
     0
  9
$USERR1
 40
0.0
  9
$USERR2
 40
0.0
  9
$USERR3
 40
0.0
  9
$USERR4
 40
0.0
  9
$USERR5
 40
0.0
  9
$WORLDVIEW
 70
     1
  9
$SHADEDGE
 70
     3
  9
$SHADEDIF
 70
    70
  9
$TILEMODE
 70
     1
  9
$MAXACTVP
 70
    64
  9
$PINSBASE
 10
0.0
 20
0.0
 30
0.0
  9
$PLIMCHECK
 70
     0
  9
$PEXTMIN
 10
0.0
 20
0.0
 30
0.0
  9
$PEXTMAX
 10
297.0
 20
210.0
 30
0.0
  9
$PLIMMIN
 10
0.0
 20
0.0
  9
$PLIMMAX
 10
297.0
 20
210.0
  9
$UNITMODE
 70
     0
  9
$VISRETAIN
 70
     1
  9
$PLINEGEN
 70
     0
  9
$PSLTSCALE
 70
     1
  9
$TREEDEPTH
 70
  3020
  9
$CMLSTYLE
  2
STANDARD
  9
$CMLJUST
 70
     0
  9
$CMLSCALE
 40
1.0
  9
$PROXYGRAPHICS
 70
     1
  9
$MEASUREMENT
 70
     0
  9
$CELWEIGHT
370
    -1
  9
$ENDCAPS
280
     0
  9
$JOINSTYLE
280
     0
  9
$LWDISPLAY
290
     0
  9
$INSUNITS
 70
     0
  9
$HYPERLINKBASE
  1

  9
$STYLESHEET
  1

  9
$XEDIT
290
     1
  9
$CEPSNTYPE
380
     0
  9
$PSTYLEMODE
290
     1
  9
$FINGERPRINTGUID
  2
{13CBA23F-78AE-4FDE-8B0A-2E31E933CD93}
  9
$VERSIONGUID
  2
{6C095172-1434-4472-BA5F-21E459A33967}
  9
$EXTNAMES
290
     1
  9
$PSVPSCALE
 40
0.0
  9
$OLESTARTUP
290
     0
  0
ENDSEC
  0
SECTION
  2
CLASSES
  0
CLASS
  1
ACDBDICTIONARYWDFLT
  2
AcDbDictionaryWithDefault
  3
AutoCAD 2000
 90
        0
280
     0
281
     0
  0
CLASS
  1
IMAGEDEF
  2
AcDbRasterImageDef
  3
ISM
 90
        0
280
     0
281
     0
  0
CLASS
  1
RASTERVARIABLES
  2
AcDbRasterVariables
  3
ISM
 90
        0
280
     0
281
     0
  0
CLASS
  1
IMAGE
  2
AcDbRasterImage
  3
ISM
 90
      127
280
     0
281
     1
  0
CLASS
  1
IMAGEDEF_REACTOR
  2
AcDbRasterImageDefReactor
  3
ISM
 90
        1
280
     0
281
     0
  0
CLASS
  1
XRECORD
  2
AcDbXrecord
  3
AutoCAD 2000
 90
    32768
280
     0
281
     0
  0
CLASS
  1
LWPOLYLINE
  2
AcDbPolyline
  3
AutoCAD 2000
 90
    32768
280
     0
281
     1
  0
CLASS
  1
HATCH
  2
AcDbHatch
  3
AutoCAD 2000
 90
    32768
280
     0
281
     1
  0
CLASS
  1
ACDBPLACEHOLDER
  2
AcDbPlaceHolder
  3
AutoCAD 2000
 90
        0
280
     0
281
     0
  0
CLASS
  1
LAYOUT
  2
AcDbLayout
  3
AutoCAD 2000
 90
        0
280
     0
281
     0
  0
CLASS
  1
DICTIONARYVAR
  2
AcDbDictionaryVar
  3
AutoCAD 2000
 90
        0
280
     0
281
     0
  0
ENDSEC
  0
SECTION
  2
TABLES
  0
TABLE
  2
VPORT
  5
8
330
0
100
AcDbSymbolTable
 70
     2
  0
VPORT
  5
5ED
330
8
100
AcDbSymbolTableRecord
100
AcDbViewportTableRecord
  2
*Active
 70
     0
 10
0.0
 20
0.0
 11
1.0
 21
1.0
 12
131.2232068794966
 22
104.4463128149008
 13
0.0
 23
0.0
 14
0.5
 24
0.5
 15
0.5
 25
0.5
 16
0.0
 26
0.0
 36
1.0
 17
0.0
 27
0.0
 37
0.0
 40
225.7311874308922
 41
1.595959595959596
 42
50.0
 43
0.0
 44
0.0
 50
0.0
 51
0.0
 71
     0
 72
   100
 73
     1
 74
     3
 75
     0
 76
     0
 77
     0
 78
     0
281
     0
 65
     1
110
0.0
120
0.0
130
0.0
111
1.0
121
0.0
131
0.0
112
0.0
122
1.0
132
0.0
 79
     0
146
0.0
  0
ENDTAB
  0
TABLE
  2
LTYPE
  5
5
330
0
100
AcDbSymbolTable
 70
    41
  0
LTYPE
  5
14
330
5
100
AcDbSymbolTableRecord
100
AcDbLinetypeTableRecord
  2
BYBLOCK
 70
     0
  3

 72
    65
 73
     0
 40
0.0
  0
LTYPE
  5
15
330
5
100
AcDbSymbolTableRecord
100
AcDbLinetypeTableRecord
  2
BYLAYER
 70
     0
  3

 72
    65
 73
     0
 40
0.0
  0
LTYPE
  5
16
330
5
100
AcDbSymbolTableRecord
100
AcDbLinetypeTableRecord
  2
CONTINUOUS
 70
     0
  3
Solid line
 72
    65
 73
     0
 40
0.0
  0
LTYPE
  5
2A
330
5
100
AcDbSymbolTableRecord
100
AcDbLinetypeTableRecord
  2
FIN
 70
     0
  3
________________________________
 72
    65
 73
     0
 40
0.0
  0
LTYPE
  5
2B
330
5
100
AcDbSymbolTableRecord
100
AcDbLinetypeTableRecord
  2
MOYEN
 70
     0
  3
________________________________
 72
    65
 73
     0
 40
0.0
  0
LTYPE
  5
2C
330
5
100
AcDbSymbolTableRecord
100
AcDbLinetypeTableRecord
  2
EPAIS
 70
     0
  3
________________________________
 72
    65
 73
     0
 40
0.0
  0
LTYPE
  5
2D
330
5
100
AcDbSymbolTableRecord
100
AcDbLinetypeTableRecord
  2
TIRET
 70
     0
  3
____    ____    ____    ____    ^D
 72
    65
 73
     4
 40
1.0
 49
0.25
 74
     0
 49
-0.25
 74
     0
 49
0.25
 74
     0
 49
-0.25
 74
     0
  0
LTYPE
  5
2E
330
5
100
AcDbSymbolTableRecord
100
AcDbLinetypeTableRecord
  2
POINT
 70
     0
  3
_ _ _ _ _ _ _ _ _ _ _ _ _ _ _ _ ^H
 72
    65
 73
     8
 40
0.5
 49
0.0625
 74
     0
 49
-0.0625
 74
     0
 49
0.0625
 74
     0
 49
-0.0625
 74
     0
 49
0.0625
 74
     0
 49
-0.0625
 74
     0
 49
0.0625
 74
     0
 49
-0.0625
 74
     0
  0
LTYPE
  5
2F
330
5
100
AcDbSymbolTableRecord
100
AcDbLinetypeTableRecord
  2
AXES
 70
     0
  3
_______   _     _______   _     ^D
 72
    65
 73
     4
 40
1.0
 49
0.4375
 74
     0
 49
-0.1875
 74
     0
 49
0.0625
 74
     0
 49
-0.3125
 74
     0
  0
LTYPE
  5
30
330
5
100
AcDbSymbolTableRecord
100
AcDbLinetypeTableRecord
  2
AXESDBLE
 70
     0
  3
_____   _   _   _____   _   _   ^F
 72
    65
 73
     6
 40
1.0
 49
0.3125
 74
     0
 49
-0.1875
 74
     0
 49
0.0625
 74
     0
 49
-0.1875
 74
     0
 49
0.0625
 74
     0
 49
-0.1875
 74
     0
  0
LTYPE
  5
31
330
5
100
AcDbSymbolTableRecord
100
AcDbLinetypeTableRecord
  2
BLEU
 70
     0
  3
________________________________
 72
    65
 73
     0
 40
0.0
  0
LTYPE
  5
32
330
5
100
AcDbSymbolTableRecord
100
AcDbLinetypeTableRecord
  2
VERT
 70
     0
  3
________________________________
 72
    65
 73
     0
 40
0.0
  0
LTYPE
  5
33
330
5
100
AcDbSymbolTableRecord
100
AcDbLinetypeTableRecord
  2
CYAN
 70
     0
  3
________________________________
 72
    65
 73
     0
 40
0.0
  0
LTYPE
  5
34
330
5
100
AcDbSymbolTableRecord
100
AcDbLinetypeTableRecord
  2
ROUGE
 70
     0
  3
________________________________
 72
    65
 73
     0
 40
0.0
  0
LTYPE
  5
35
330
5
100
AcDbSymbolTableRecord
100
AcDbLinetypeTableRecord
  2
VIOLET
 70
     0
  3
________________________________
 72
    65
 73
     0
 40
0.0
  0
LTYPE
  5
36
330
5
100
AcDbSymbolTableRecord
100
AcDbLinetypeTableRecord
  2
JAUNE
 70
     0
  3
________________________________
 72
    65
 73
     0
 40
0.0
  0
LTYPE
  5
37
330
5
100
AcDbSymbolTableRecord
100
AcDbLinetypeTableRecord
  2
NOIR
 70
     0
  3
________________________________
 72
    65
 73
     0
 40
0.0
  0
LTYPE
  5
38
330
5
100
AcDbSymbolTableRecord
100
AcDbLinetypeTableRecord
  2
BLANC
 70
     0
  3
________________________________
 72
    65
 73
     0
 40
0.0
  0
LTYPE
  5
39
330
5
100
AcDbSymbolTableRecord
100
AcDbLinetypeTableRecord
  2
ORANGE
 70
     0
  3
________________________________
 72
    65
 73
     0
 40
0.0
  0
LTYPE
  5
3A
330
5
100
AcDbSymbolTableRecord
100
AcDbLinetypeTableRecord
  2
BRUN
 70
     0
  3
________________________________
 72
    65
 73
     0
 40
0.0
  0
LTYPE
  5
3B
330
5
100
AcDbSymbolTableRecord
100
AcDbLinetypeTableRecord
  2
GRIS
 70
     0
  3
________________________________
 72
    65
 73
     0
 40
0.0
  0
LTYPE
  5
3C
330
5
100
AcDbSymbolTableRecord
100
AcDbLinetypeTableRecord
  2
SYMBOL_C
 70
     0
  3
________________________________
 72
    65
 73
     0
 40
0.0
  0
LTYPE
  5
3D
330
5
100
AcDbSymbolTableRecord
100
AcDbLinetypeTableRecord
  2
SYMBOL_P
 70
     0
  3
________________________________
 72
    65
 73
     0
 40
0.0
  0
LTYPE
  5
3E
330
5
100
AcDbSymbolTableRecord
100
AcDbLinetypeTableRecord
  2
LINE
 70
     0
  3
________________________________
 72
    65
 73
     0
 40
0.0
  0
LTYPE
  5
3F
330
5
100
AcDbSymbolTableRecord
100
AcDbLinetypeTableRecord
  2
LINE_1
 70
     0
  3
________________________________
 72
    65
 73
     0
 40
0.0
  0
LTYPE
  5
40
330
5
100
AcDbSymbolTableRecord
100
AcDbLinetypeTableRecord
  2
LINE_2
 70
     0
  3
________________________________
 72
    65
 73
     0
 40
0.0
  0
LTYPE
  5
41
330
5
100
AcDbSymbolTableRecord
100
AcDbLinetypeTableRecord
  2
LINE_3
 70
     0
  3
________________________________
 72
    65
 73
     0
 40
0.0
  0
LTYPE
  5
42
330
5
100
AcDbSymbolTableRecord
100
AcDbLinetypeTableRecord
  2
LINE_4
 70
     0
  3
________________________________
 72
    65
 73
     0
 40
0.0
  0
LTYPE
  5
43
330
5
100
AcDbSymbolTableRecord
100
AcDbLinetypeTableRecord
  2
LINE_5
 70
     0
  3
________________________________
 72
    65
 73
     0
 40
0.0
  0
LTYPE
  5
44
330
5
100
AcDbSymbolTableRecord
100
AcDbLinetypeTableRecord
  2
LINE_6
 70
     0
  3
________________________________
 72
    65
 73
     0
 40
0.0
  0
LTYPE
  5
45
330
5
100
AcDbSymbolTableRecord
100
AcDbLinetypeTableRecord
  2
LINE_7
 70
     0
  3
________________________________
 72
    65
 73
     0
 40
0.0
  0
LTYPE
  5
46
330
5
100
AcDbSymbolTableRecord
100
AcDbLinetypeTableRecord
  2
LINE_8
 70
     0
  3
________________________________
 72
    65
 73
     0
 40
0.0
  0
LTYPE
  5
47
330
5
100
AcDbSymbolTableRecord
100
AcDbLinetypeTableRecord
  2
LINE_9
 70
     0
  3
________________________________
 72
    65
 73
     0
 40
0.0
  0
LTYPE
  5
48
330
5
100
AcDbSymbolTableRecord
100
AcDbLinetypeTableRecord
  2
LINE_10
 70
     0
  3
________________________________
 72
    65
 73
     0
 40
0.0
  0
LTYPE
  5
49
330
5
100
AcDbSymbolTableRecord
100
AcDbLinetypeTableRecord
  2
LINE_11
 70
     0
  3
________________________________
 72
    65
 73
     0
 40
0.0
  0
LTYPE
  5
4A
330
5
100
AcDbSymbolTableRecord
100
AcDbLinetypeTableRecord
  2
LINE_12
 70
     0
  3
________________________________
 72
    65
 73
     0
 40
0.0
  0
LTYPE
  5
4B
330
5
100
AcDbSymbolTableRecord
100
AcDbLinetypeTableRecord
  2
LINE_13
 70
     0
  3
________________________________
 72
    65
 73
     0
 40
0.0
  0
LTYPE
  5
4C
330
5
100
AcDbSymbolTableRecord
100
AcDbLinetypeTableRecord
  2
LINE_14
 70
     0
  3
________________________________
 72
    65
 73
     0
 40
0.0
  0
LTYPE
  5
4D
330
5
100
AcDbSymbolTableRecord
100
AcDbLinetypeTableRecord
  2
LINE_15
 70
     0
  3
________________________________
 72
    65
 73
     0
 40
0.0
  0
LTYPE
  5
4E
330
5
100
AcDbSymbolTableRecord
100
AcDbLinetypeTableRecord
  2
LINE_16
 70
     0
  3
________________________________
 72
    65
 73
     0
 40
0.0
  0
LTYPE
  5
4F
330
5
100
AcDbSymbolTableRecord
100
AcDbLinetypeTableRecord
  2
LINE_17
 70
     0
  3
________________________________
 72
    65
 73
     0
 40
0.0
  0
LTYPE
  5
50
330
5
100
AcDbSymbolTableRecord
100
AcDbLinetypeTableRecord
  2
LINE_18
 70
     0
  3
________________________________
 72
    65
 73
     0
 40
0.0
  0
LTYPE
  5
51
330
5
100
AcDbSymbolTableRecord
100
AcDbLinetypeTableRecord
  2
LINE_19
 70
     0
  3
________________________________
 72
    65
 73
     0
 40
0.0
  0
ENDTAB
  0
TABLE
  2
LAYER
  5
2
330
0
100
AcDbSymbolTable
 70
     4
  0
LAYER
  5
10
330
2
100
AcDbSymbolTableRecord
100
AcDbLayerTableRecord
  2
0
 70
     0
 62
     7
  6
CONTINUOUS
370
    -3
390
5E7
  0
LAYER
  5
53
330
2
100
AcDbSymbolTableRecord
100
AcDbLayerTableRecord
  2
DEFAULT
 70
     0
 62
     1
  6
CONTINUOUS
370
    -3
390
5E7
  0
LAYER
  5
5C
330
2
100
AcDbSymbolTableRecord
100
AcDbLayerTableRecord
  2
A
 70
     0
 62
     1
  6
CONTINUOUS
370
    -3
390
5E7
  0
LAYER
  5
198
330
2
100
AcDbSymbolTableRecord
100
AcDbLayerTableRecord
  2
B
 70
     0
 62
     1
  6
CONTINUOUS
370
    -3
390
5E7
  0
ENDTAB
  0
TABLE
  2
STYLE
  5
3
330
0
100
AcDbSymbolTable
 70
     2
  0
STYLE
  5
11
330
3
100
AcDbSymbolTableRecord
100
AcDbTextStyleTableRecord
  2
STANDARD
 70
     0
 40
0.0
 41
1.0
 50
0.0
 71
     0
 42
0.2
  3
txt
  4

  0
STYLE
  5
92
330
3
100
AcDbSymbolTableRecord
100
AcDbTextStyleTableRecord
  2
ARIAL
 70
     0
 40
2.657142857142857
 41
0.9200000000000001
 50
0.0
 71
     0
 42
0.5
  3
ARIAL.TTF
  4

1001
ACAD
1000
Arial
1071
       34
  0
ENDTAB
  0
TABLE
  2
VIEW
  5
6
330
0
100
AcDbSymbolTable
 70
     1
  0
VIEW
  5
52
330
6
100
AcDbSymbolTableRecord
100
AcDbViewTableRecord
  2
VIEW
 70
     0
 40
1.0
 10
0.0
 20
0.0
 41
1.0
 11
0.0
 21
0.0
 31
1.0
 12
0.0
 22
0.0
 32
0.0
 42
50.0
 43
0.0
 44
0.0
 50
0.0
 71
     0
281
     0
 72
     0
  0
ENDTAB
  0
TABLE
  2
UCS
  5
7
330
0
100
AcDbSymbolTable
 70
     0
  0
ENDTAB
  0
TABLE
  2
APPID
  5
9
330
0
100
AcDbSymbolTable
 70
     1
  0
APPID
  5
12
330
9
100
AcDbSymbolTableRecord
100
AcDbRegAppTableRecord
  2
ACAD
 70
     0
  0
ENDTAB
  0
TABLE
  2
DIMSTYLE
  5
A
330
0
100
AcDbSymbolTable
 70
     1
100
AcDbDimStyleTable
 71
     0
  0
DIMSTYLE
105
27
330
A
100
AcDbSymbolTableRecord
100
AcDbDimStyleTableRecord
  2
STANDARD
 70
     0
340
11
  0
ENDTAB
  0
TABLE
  2
BLOCK_RECORD
  5
1
330
0
100
AcDbSymbolTable
 70
    17
  0
BLOCK_RECORD
  5
1F
330
1
100
AcDbSymbolTableRecord
100
AcDbBlockTableRecord
  2
*MODEL_SPACE
340
5E8
  0
BLOCK_RECORD
  5
1B
330
1
100
AcDbSymbolTableRecord
100
AcDbBlockTableRecord
  2
*PAPER_SPACE
340
5E9
  0
BLOCK_RECORD
  5
54
330
1
100
AcDbSymbolTableRecord
100
AcDbBlockTableRecord
  2
14
340
0
102
{BLKREFS
331
CB
102
}
  0
BLOCK_RECORD
  5
199
330
1
100
AcDbSymbolTableRecord
100
AcDbBlockTableRecord
  2
141P0N_103_0_3_1
340
0
102
{BLKREFS
331
1A2
102
}
  0
BLOCK_RECORD
  5
1A3
330
1
100
AcDbSymbolTableRecord
100
AcDbBlockTableRecord
  2
008C0_001_0_3_1
340
0
102
{BLKREFS
331
1AE
331
21D
331
21F
331
220
331
24F
102
}
  0
BLOCK_RECORD
  5
1AF
330
1
100
AcDbSymbolTableRecord
100
AcDbBlockTableRecord
  2
QD1P4_Q07_0_3_1
340
0
102
{BLKREFS
331
1ED
102
}
  0
BLOCK_RECORD
  5
1F4
330
1
100
AcDbSymbolTableRecord
100
AcDbBlockTableRecord
  2
Q89P4N_Q05_0_3_1
340
0
102
{BLKREFS
331
210
102
}
  0
BLOCK_RECORD
  5
221
330
1
100
AcDbSymbolTableRecord
100
AcDbBlockTableRecord
  2
Q09P2N_Q01_0_3_1
340
0
102
{BLKREFS
331
235
331
302
331
32E
331
41D
102
}
  0
BLOCK_RECORD
  5
23D
330
1
100
AcDbSymbolTableRecord
100
AcDbBlockTableRecord
  2
010C0_001_0_3_1
340
0
102
{BLKREFS
331
24B
331
251
331
30B
331
326
331
337
331
33B
331
5B0
331
5B4
102
}
  0
BLOCK_RECORD
  5
254
330
1
100
AcDbSymbolTableRecord
100
AcDbBlockTableRecord
  2
_I188_KNX_0_3_1
340
0
102
{BLKREFS
331
2EE
102
}
  0
BLOCK_RECORD
  5
30F
330
1
100
AcDbSymbolTableRecord
100
AcDbBlockTableRecord
  2
X15C0_X01_0_3_1
340
0
102
{BLKREFS
331
322
331
32A
331
33F
331
38F
102
}
  0
BLOCK_RECORD
  5
343
330
1
100
AcDbSymbolTableRecord
100
AcDbBlockTableRecord
  2
XC2P2_X07_0_3_1
340
0
102
{BLKREFS
331
360
331
393
102
}
  0
BLOCK_RECORD
  5
363
330
1
100
AcDbSymbolTableRecord
100
AcDbBlockTableRecord
  2
Q48P2N_Q03_0_3_1
340
0
102
{BLKREFS
331
384
102
}
  0
BLOCK_RECORD
  5
398
330
1
100
AcDbSymbolTableRecord
100
AcDbBlockTableRecord
  2
Q85P2N_Q05_0_3_1
340
0
102
{BLKREFS
331
3B8
102
}
  0
BLOCK_RECORD
  5
3C3
330
1
100
AcDbSymbolTableRecord
100
AcDbBlockTableRecord
  2
_I447_KNX_0_3_1
340
0
102
{BLKREFS
331
40F
102
}
  0
BLOCK_RECORD
  5
426
330
1
100
AcDbSymbolTableRecord
100
AcDbBlockTableRecord
  2
T12C0N_T01_0_3_1
340
0
102
{BLKREFS
331
42D
331
495
102
}
  0
BLOCK_RECORD
  5
42F
330
1
100
AcDbSymbolTableRecord
100
AcDbBlockTableRecord
  2
006C0_000_0_3_1
340
0
102
{BLKREFS
331
43B
331
43F
102
}
  0
BLOCK_RECORD
  5
444
330
1
100
AcDbSymbolTableRecord
100
AcDbBlockTableRecord
  2
_I448_KNX_0_3_1
340
0
102
{BLKREFS
331
485
102
}
  0
BLOCK_RECORD
  5
497
330
1
100
AcDbSymbolTableRecord
100
AcDbBlockTableRecord
  2
ALIM_U01_0_3_1
340
0
102
{BLKREFS
331
5A4
102
}
  0
ENDTAB
  0
ENDSEC
  0
SECTION
  2
BLOCKS
  0
BLOCK
  5
20
330
1F
100
AcDbEntity
  8
0
100
AcDbBlockBegin
  2
*MODEL_SPACE
 70
     0
 10
0.0
 20
0.0
 30
0.0
  3
*MODEL_SPACE
  1

  0
ENDBLK
  5
21
330
1F
100
AcDbEntity
  8
0
100
AcDbBlockEnd
  0
BLOCK
  5
1C
330
1B
100
AcDbEntity
 67
     1
  8
0
100
AcDbBlockBegin
  2
*PAPER_SPACE
 70
     0
 10
0.0
 20
0.0
 30
0.0
  3
*PAPER_SPACE
  1

  0
ENDBLK
  5
1D
330
1B
100
AcDbEntity
 67
     1
  8
0
100
AcDbBlockEnd
  0
BLOCK
  5
C9
330
54
100
AcDbEntity
  8
0
100
AcDbBlockBegin
  2
14
 70
     2
 10
0.0
 20
0.0
 30
0.0
  3
14
  1

  0
LWPOLYLINE
  5
55
330
54
100
AcDbEntity
  8
A
  6
EPAIS
 62
     9
100
AcDbPolyline
 90
        5
 70
     0
 43
0.0
 10
0.0
 20
0.0
 10
0.0
 20
20.0
 10
297.0
 20
20.0
 10
297.0
 20
0.0
 10
0.0
 20
0.0
  0
LWPOLYLINE
  5
5D
330
54
100
AcDbEntity
  8
A
  6
EPAIS
 62
     9
100
AcDbPolyline
 90
        5
 70
     0
 43
0.0
 10
140.0
 20
0.0
 10
140.0
 20
20.0
 10
203.0
 20
20.0
 10
203.0
 20
0.0
 10
140.0
 20
0.0
  0
LWPOLYLINE
  5
64
330
54
100
AcDbEntity
  8
A
  6
EPAIS
 62
     9
100
AcDbPolyline
 90
        5
 70
     0
 43
0.0
 10
202.9814453125
 20
20.0
 10
202.9814453125
 20
0.0
 10
239.9814453124999
 20
0.0
 10
239.9814453124999
 20
20.0
 10
202.9814453125
 20
20.0
  0
LWPOLYLINE
  5
6B
330
54
100
AcDbEntity
  8
A
  6
EPAIS
 62
     9
100
AcDbPolyline
 90
        5
 70
     0
 43
0.0
 10
140.0
 20
20.0
 10
140.0
 20
13.5
 10
240.0
 20
13.5
 10
240.0
 20
20.0
 10
140.0
 20
20.0
  0
LINE
  5
72
330
54
100
AcDbEntity
  8
A
  6
MOYEN
 62
     4
100
AcDbLine
 10
140.0
 20
10.0
 30
0.0
 11
240.0
 21
10.0
 31
0.0
  0
LINE
  5
73
330
54
100
AcDbEntity
  8
A
  6
MOYEN
 62
     4
100
AcDbLine
 10
140.0
 20
7.5
 30
0.0
 11
240.0
 21
7.5
 31
0.0
  0
LINE
  5
74
330
54
100
AcDbEntity
  8
A
  6
MOYEN
 62
     4
100
AcDbLine
 10
240.0
 20
5.0
 30
0.0
 11
140.0
 21
5.0
 31
0.0
  0
LINE
  5
75
330
54
100
AcDbEntity
  8
A
  6
MOYEN
 62
     4
100
AcDbLine
 10
140.0
 20
2.5
 30
0.0
 11
240.0
 21
2.5
 31
0.0
  0
LINE
  5
76
330
54
100
AcDbEntity
  8
A
  6
EPAIS
 62
     9
100
AcDbLine
 10
240.0
 20
5.0
 30
0.0
 11
297.0
 21
5.0
 31
0.0
  0
LINE
  5
77
330
54
100
AcDbEntity
  8
A
  6
MOYEN
 62
     4
100
AcDbLine
 10
171.5
 20
20.0
 30
0.0
 11
171.5
 21
13.5
 31
0.0
  0
LINE
  5
78
330
54
100
AcDbEntity
  8
A
  6
MOYEN
 62
     4
100
AcDbLine
 10
221.4999999999999
 20
13.5
 30
0.0
 11
221.4999999999999
 21
0.0
 31
0.0
  0
IMAGE
  5
7C
330
54
100
AcDbEntity
  8
A
  6
FIN
 62
     0
 92
      140
310
8C000000010000008400000006000000050000000000000078756F400000805613281A4000000000000000000000000078756F4000000000CA6E32400000000000000000000004DFFDE1714000000000CA6E32400000000000000000000004DFFDE171400000805613281A4000000000000000000000000078756F40000080
310
5613281A400000000000000000
100
AcDbRasterImage
 90
        0
 10
251.6708984375
 20
6.53913626819849
 30
0.0
 11
0.0938789695501328
 21
0.0
 31
0.0
 12
0.0
 22
0.0868148431181908
 32
0.0
 13
367.0
 23
137.0
340
7A
 70
     3
280
     0
281
    50
282
    50
283
     0
360
7D
 71
     1
 91
        2
 14
-0.5
 24
-0.5
 14
366.5
 24
136.4999999999999
  0
ATTDEF
  5
7E
330
54
100
AcDbEntity
  8
A
  6
FIN
 62
     7
100
AcDbText
 10
282.8171997070313
 20
1.607490219388689
 30
0.0
 40
1.992857142857142
  1

 41
0.9200000000000001
 72
     2
 11
282.8171997070313
 21
2.60391879081726
 31
0.0
100
AcDbAttributeDefinition
  3

  2
$FOLNUM
 70
     0
 74
     2
  0
ATTDEF
  5
7F
330
54
100
AcDbEntity
  8
A
  6
FIN
 62
     7
100
AcDbText
 10
285.0936889648437
 20
1.664779342923845
 30
0.0
 40
1.992857142857142
  1

 41
0.9200000000000001
 11
285.0936889648437
 21
2.661207914352416
 31
0.0
100
AcDbAttributeDefinition
  3

  2
$NBFOLGR
 70
     0
 74
     2
  0
ATTDEF
  5
80
330
54
100
AcDbEntity
  8
A
  6
FIN
 62
     7
100
AcDbText
 10
221.9862518310546
 20
16.8684196472168
 30
0.0
 40
1.992857142857142
  1

 41
0.9200000000000001
 72
     4
 11
221.9862518310546
 21
16.8684196472168
 31
0.0
100
AcDbAttributeDefinition
  3

  2
$DOSSIER(N-1)
 70
     0
 74
     2
  0
ATTDEF
  5
81
330
54
100
AcDbEntity
  8
A
  6
FIN
 62
     7
100
AcDbText
 10
156.6351318359375
 20
15.96512309483119
 30
0.0
 40
1.992857142857142
  1

 41
0.9200000000000001
 11
156.6351318359375
 21
16.96155166625977
 31
0.0
100
AcDbAttributeDefinition
  3

  2
$FOLREALI
 70
     0
 74
     2
  0
ATTDEF
  5
82
330
54
100
AcDbEntity
  8
A
  6
FIN
 62
     7
100
AcDbText
 10
179.9422607421875
 20
15.98519030979701
 30
0.0
 40
1.992857142857142
  1

 41
0.9200000000000001
 11
179.9422607421875
 21
16.98161888122559
 31
0.0
100
AcDbAttributeDefinition
  3

  2
$REV_DATE:X
 70
     0
 74
     2
  0
ATTDEF
  5
83
330
54
100
AcDbEntity
  8
A
  6
FIN
 62
     7
100
AcDbText
 10
3.636573791503906
 20
12.95742307390485
 30
0.0
 40
3.321428571428572
  1

 41
0.9200000000000001
 11
3.636573791503906
 21
14.61813735961914
 31
0.0
100
AcDbAttributeDefinition
  3

  2
$DOSSIER(N-3)
 70
     0
 74
     2
  0
ATTDEF
  5
84
330
54
100
AcDbEntity
  8
A
  6
FIN
 62
     7
100
AcDbText
 10
3.618404388427733
 20
4.105261666434151
 30
0.0
 40
3.321428571428572
  1

 41
0.9200000000000001
 11
3.618404388427733
 21
5.765975952148437
 31
0.0
100
AcDbAttributeDefinition
  3

  2
$FOLTITRE
 70
     0
 74
     2
  0
ATTDEF
  5
85
330
54
100
AcDbEntity
  8
A
  6
FIN
 62
     7
100
AcDbText
 10
141.2790985107421
 20
8.208684866768972
 30
0.0
 40
1.328571428571428
  1

 41
0.9200000000000001
 11
141.2790985107421
 21
8.872970581054687
 31
0.0
100
AcDbAttributeDefinition
  3

  2
$REV_LIB:X
 70
     0
 74
     2
  0
ATTDEF
  5
86
330
54
100
AcDbEntity
  8
A
  6
FIN
 62
     7
100
AcDbText
 10
206.1279602050781
 20
8.217974608285086
 30
0.0
 40
1.328571428571428
  1

 41
0.9200000000000001
 11
206.1279602050781
 21
8.8822603225708
 31
0.0
100
AcDbAttributeDefinition
  3

  2
$REV_DATE:X
 70
     0
 74
     2
  0
ATTDEF
  5
87
330
54
100
AcDbEntity
  8
A
  6
FIN
 62
     7
100
AcDbText
 10
224.9319915771484
 20
8.217974608285086
 30
0.0
 40
1.328571428571428
  1

 41
0.9200000000000001
 11
224.9319915771484
 21
8.8822603225708
 31
0.0
100
AcDbAttributeDefinition
  3

  2
$REV_NOM:X
 70
     0
 74
     2
  0
ATTDEF
  5
88
330
54
100
AcDbEntity
  8
A
  6
FIN
 62
     7
100
AcDbText
 10
141.2750091552734
 20
5.786786978585379
 30
0.0
 40
1.328571428571428
  1

 41
0.9200000000000001
 11
141.2750091552734
 21
6.451072692871093
 31
0.0
100
AcDbAttributeDefinition
  3

  2
$REV_LIB:X+1
 70
     0
 74
     2
  0
ATTDEF
  5
89
330
54
100
AcDbEntity
  8
A
  6
FIN
 62
     7
100
AcDbText
 10
206.1238708496094
 20
5.796075766427176
 30
0.0
 40
1.328571428571428
  1

 41
0.9200000000000001
 11
206.1238708496094
 21
6.460361480712891
 31
0.0
100
AcDbAttributeDefinition
  3

  2
$REV_DATE:X+1
 70
     0
 74
     2
  0
ATTDEF
  5
8A
330
54
100
AcDbEntity
  8
A
  6
FIN
 62
     7
100
AcDbText
 10
224.9279022216796
 20
5.796075766427176
 30
0.0
 40
1.328571428571428
  1

 41
0.9200000000000001
 11
224.9279022216796
 21
6.460361480712891
 31
0.0
100
AcDbAttributeDefinition
  3

  2
$REV_NOM:X+1
 70
     0
 74
     2
  0
ATTDEF
  5
8B
330
54
100
AcDbEntity
  8
A
  6
FIN
 62
     7
100
AcDbText
 10
141.2959594726563
 20
3.234682743889944
 30
0.0
 40
1.328571428571428
  1

 41
0.9200000000000001
 11
141.2959594726563
 21
3.898968458175658
 31
0.0
100
AcDbAttributeDefinition
  3

  2
$REV_LIB:X+2
 70
     0
 74
     2
  0
ATTDEF
  5
8C
330
54
100
AcDbEntity
  8
A
  6
FIN
 62
     7
100
AcDbText
 10
206.1448211669921
 20
3.243971531731741
 30
0.0
 40
1.328571428571428
  1

 41
0.9200000000000001
 11
206.1448211669921
 21
3.908257246017456
 31
0.0
100
AcDbAttributeDefinition
  3

  2
$REV_DATE:X+2
 70
     0
 74
     2
  0
ATTDEF
  5
8D
330
54
100
AcDbEntity
  8
A
  6
FIN
 62
     7
100
AcDbText
 10
224.9488525390625
 20
3.243971531731741
 30
0.0
 40
1.328571428571428
  1

 41
0.9200000000000001
 11
224.9488525390625
 21
3.908257246017456
 31
0.0
100
AcDbAttributeDefinition
  3

  2
$REV_NOM:X+2
 70
     0
 74
     2
  0
ATTDEF
  5
8E
330
54
100
AcDbEntity
  8
A
  6
FIN
 62
     7
100
AcDbText
 10
141.2657165527344
 20
0.6825732639857697
 30
0.0
 40
1.328571428571428
  1

 41
0.9200000000000001
 11
141.2657165527344
 21
1.346858978271484
 31
0.0
100
AcDbAttributeDefinition
  3

  2
$REV_LIB:X+3
 70
     0
 74
     2
  0
ATTDEF
  5
8F
330
54
100
AcDbEntity
  8
A
  6
FIN
 62
     7
100
AcDbText
 10
206.1145782470703
 20
0.6918620518275666
 30
0.0
 40
1.328571428571428
  1

 41
0.9200000000000001
 11
206.1145782470703
 21
1.356147766113281
 31
0.0
100
AcDbAttributeDefinition
  3

  2
$REV_DATE:X+3
 70
     0
 74
     2
  0
ATTDEF
  5
90
330
54
100
AcDbEntity
  8
A
  6
FIN
 62
     7
100
AcDbText
 10
224.9186096191405
 20
0.6918620518275666
 30
0.0
 40
1.328571428571428
  1

 41
0.9200000000000001
 11
224.9186096191405
 21
1.356147766113281
 31
0.0
100
AcDbAttributeDefinition
  3

  2
$REV_NOM:X+3
 70
     0
 74
     2
  0
LINE
  5
91
330
54
100
AcDbEntity
  8
A
  6
FIN
 62
     7
100
AcDbLine
 10
0.0
 20
205.0
 30
0.0
 11
297.0
 21
205.0
 31
0.0
  0
TEXT
  5
93
330
54
100
AcDbEntity
  8
A
  6
FIN
 62
     7
100
AcDbText
 10
7.425001144409179
 20
205.5
 30
0.0
 40
2.657142857142857
  1
1
 41
0.9200000000000001
  7
ARIAL
100
AcDbText
  0
LINE
  5
94
330
54
100
AcDbEntity
  8
A
  6
FIN
 62
     7
100
AcDbLine
 10
14.85000133514403
 20
205.0
 30
0.0
 11
14.85000133514403
 21
210.0
 31
0.0
  0
TEXT
  5
95
330
54
100
AcDbEntity
  8
A
  6
FIN
 62
     7
100
AcDbText
 10
22.27500152587891
 20
205.5
 30
0.0
 40
2.657142857142857
  1
2
 41
0.9200000000000001
  7
ARIAL
100
AcDbText
  0
LINE
  5
96
330
54
100
AcDbEntity
  8
A
  6
FIN
 62
     7
100
AcDbLine
 10
29.70000267028808
 20
205.0
 30
0.0
 11
29.70000267028808
 21
210.0
 31
0.0
  0
TEXT
  5
97
330
54
100
AcDbEntity
  8
A
  6
FIN
 62
     7
100
AcDbText
 10
37.12500381469727
 20
205.5
 30
0.0
 40
2.657142857142857
  1
3
 41
0.9200000000000001
  7
ARIAL
100
AcDbText
  0
LINE
  5
98
330
54
100
AcDbEntity
  8
A
  6
FIN
 62
     7
100
AcDbLine
 10
44.55000305175781
 20
205.0
 30
0.0
 11
44.55000305175781
 21
210.0
 31
0.0
  0
TEXT
  5
99
330
54
100
AcDbEntity
  8
A
  6
FIN
 62
     7
100
AcDbText
 10
51.97500610351563
 20
205.5
 30
0.0
 40
2.657142857142857
  1
4
 41
0.9200000000000001
  7
ARIAL
100
AcDbText
  0
LINE
  5
9A
330
54
100
AcDbEntity
  8
A
  6
FIN
 62
     7
100
AcDbLine
 10
59.40000534057617
 20
205.0
 30
0.0
 11
59.40000534057617
 21
210.0
 31
0.0
  0
TEXT
  5
9B
330
54
100
AcDbEntity
  8
A
  6
FIN
 62
     7
100
AcDbText
 10
66.82500457763672
 20
205.5
 30
0.0
 40
2.657142857142857
  1
5
 41
0.9200000000000001
  7
ARIAL
100
AcDbText
  0
LINE
  5
9C
330
54
100
AcDbEntity
  8
A
  6
FIN
 62
     7
100
AcDbLine
 10
74.25000762939453
 20
205.0
 30
0.0
 11
74.25000762939453
 21
210.0
 31
0.0
  0
TEXT
  5
9D
330
54
100
AcDbEntity
  8
A
  6
FIN
 62
     7
100
AcDbText
 10
81.67500305175781
 20
205.5
 30
0.0
 40
2.657142857142857
  1
6
 41
0.9200000000000001
  7
ARIAL
100
AcDbText
  0
LINE
  5
9E
330
54
100
AcDbEntity
  8
A
  6
FIN
 62
     7
100
AcDbLine
 10
89.10000610351563
 20
205.0
 30
0.0
 11
89.10000610351563
 21
210.0
 31
0.0
  0
TEXT
  5
9F
330
54
100
AcDbEntity
  8
A
  6
FIN
 62
     7
100
AcDbText
 10
96.52500152587892
 20
205.5
 30
0.0
 40
2.657142857142857
  1
7
 41
0.9200000000000001
  7
ARIAL
100
AcDbText
  0
LINE
  5
A0
330
54
100
AcDbEntity
  8
A
  6
FIN
 62
     7
100
AcDbLine
 10
103.9500045776367
 20
205.0
 30
0.0
 11
103.9500045776367
 21
210.0
 31
0.0
  0
TEXT
  5
A1
330
54
100
AcDbEntity
  8
A
  6
FIN
 62
     7
100
AcDbText
 10
111.375
 20
205.5
 30
0.0
 40
2.657142857142857
  1
8
 41
0.9200000000000001
  7
ARIAL
100
AcDbText
  0
LINE
  5
A2
330
54
100
AcDbEntity
  8
A
  6
FIN
 62
     7
100
AcDbLine
 10
118.8000030517577
 20
205.0
 30
0.0
 11
118.8000030517577
 21
210.0
 31
0.0
  0
TEXT
  5
A3
330
54
100
AcDbEntity
  8
A
  6
FIN
 62
     7
100
AcDbText
 10
126.2250061035155
 20
205.5
 30
0.0
 40
2.657142857142857
  1
9
 41
0.9200000000000001
  7
ARIAL
100
AcDbText
  0
LINE
  5
A4
330
54
100
AcDbEntity
  8
A
  6
FIN
 62
     7
100
AcDbLine
 10
133.6500091552734
 20
205.0
 30
0.0
 11
133.6500091552734
 21
210.0
 31
0.0
  0
TEXT
  5
A5
330
54
100
AcDbEntity
  8
A
  6
FIN
 62
     7
100
AcDbText
 10
141.0750122070313
 20
205.5
 30
0.0
 40
2.657142857142857
  1
10
 41
0.9200000000000001
  7
ARIAL
100
AcDbText
  0
LINE
  5
A6
330
54
100
AcDbEntity
  8
A
  6
FIN
 62
     7
100
AcDbLine
 10
148.500015258789
 20
205.0
 30
0.0
 11
148.500015258789
 21
210.0
 31
0.0
  0
TEXT
  5
A7
330
54
100
AcDbEntity
  8
A
  6
FIN
 62
     7
100
AcDbText
 10
155.9250183105469
 20
205.5
 30
0.0
 40
2.657142857142857
  1
11
 41
0.9200000000000001
  7
ARIAL
100
AcDbText
  0
LINE
  5
A8
330
54
100
AcDbEntity
  8
A
  6
FIN
 62
     7
100
AcDbLine
 10
163.3500213623046
 20
205.0
 30
0.0
 11
163.3500213623046
 21
210.0
 31
0.0
  0
TEXT
  5
A9
330
54
100
AcDbEntity
  8
A
  6
FIN
 62
     7
100
AcDbText
 10
170.7750244140624
 20
205.5
 30
0.0
 40
2.657142857142857
  1
12
 41
0.9200000000000001
  7
ARIAL
100
AcDbText
  0
LINE
  5
AA
330
54
100
AcDbEntity
  8
A
  6
FIN
 62
     7
100
AcDbLine
 10
178.2000274658203
 20
205.0
 30
0.0
 11
178.2000274658203
 21
210.0
 31
0.0
  0
TEXT
  5
AB
330
54
100
AcDbEntity
  8
A
  6
FIN
 62
     7
100
AcDbText
 10
185.6250305175781
 20
205.5
 30
0.0
 40
2.657142857142857
  1
13
 41
0.9200000000000001
  7
ARIAL
100
AcDbText
  0
LINE
  5
AC
330
54
100
AcDbEntity
  8
A
  6
FIN
 62
     7
100
AcDbLine
 10
193.0500335693359
 20
205.0
 30
0.0
 11
193.0500335693359
 21
210.0
 31
0.0
  0
TEXT
  5
AD
330
54
100
AcDbEntity
  8
A
  6
FIN
 62
     7
100
AcDbText
 10
200.4750366210938
 20
205.5
 30
0.0
 40
2.657142857142857
  1
14
 41
0.9200000000000001
  7
ARIAL
100
AcDbText
  0
LINE
  5
AE
330
54
100
AcDbEntity
  8
A
  6
FIN
 62
     7
100
AcDbLine
 10
207.9000396728515
 20
205.0
 30
0.0
 11
207.9000396728515
 21
210.0
 31
0.0
  0
TEXT
  5
AF
330
54
100
AcDbEntity
  8
A
  6
FIN
 62
     7
100
AcDbText
 10
215.3250427246093
 20
205.5
 30
0.0
 40
2.657142857142857
  1
15
 41
0.9200000000000001
  7
ARIAL
100
AcDbText
  0
LINE
  5
B0
330
54
100
AcDbEntity
  8
A
  6
FIN
 62
     7
100
AcDbLine
 10
222.7500457763671
 20
205.0
 30
0.0
 11
222.7500457763671
 21
210.0
 31
0.0
  0
TEXT
  5
B1
330
54
100
AcDbEntity
  8
A
  6
FIN
 62
     7
100
AcDbText
 10
230.1750488281249
 20
205.5
 30
0.0
 40
2.657142857142857
  1
16
 41
0.9200000000000001
  7
ARIAL
100
AcDbText
  0
LINE
  5
B2
330
54
100
AcDbEntity
  8
A
  6
FIN
 62
     7
100
AcDbLine
 10
237.6000518798828
 20
205.0
 30
0.0
 11
237.6000518798828
 21
210.0
 31
0.0
  0
TEXT
  5
B3
330
54
100
AcDbEntity
  8
A
  6
FIN
 62
     7
100
AcDbText
 10
245.0250549316406
 20
205.5
 30
0.0
 40
2.657142857142857
  1
17
 41
0.9200000000000001
  7
ARIAL
100
AcDbText
  0
LINE
  5
B4
330
54
100
AcDbEntity
  8
A
  6
FIN
 62
     7
100
AcDbLine
 10
252.4500579833984
 20
205.0
 30
0.0
 11
252.4500579833984
 21
210.0
 31
0.0
  0
TEXT
  5
B5
330
54
100
AcDbEntity
  8
A
  6
FIN
 62
     7
100
AcDbText
 10
259.8750610351562
 20
205.5
 30
0.0
 40
2.657142857142857
  1
18
 41
0.9200000000000001
  7
ARIAL
100
AcDbText
  0
LINE
  5
B6
330
54
100
AcDbEntity
  8
A
  6
FIN
 62
     7
100
AcDbLine
 10
267.300048828125
 20
205.0
 30
0.0
 11
267.300048828125
 21
210.0
 31
0.0
  0
TEXT
  5
B7
330
54
100
AcDbEntity
  8
A
  6
FIN
 62
     7
100
AcDbText
 10
274.7250671386719
 20
205.5
 30
0.0
 40
2.657142857142857
  1
19
 41
0.9200000000000001
  7
ARIAL
100
AcDbText
  0
LINE
  5
B8
330
54
100
AcDbEntity
  8
A
  6
FIN
 62
     7
100
AcDbLine
 10
282.1500549316406
 20
205.0
 30
0.0
 11
282.1500549316406
 21
210.0
 31
0.0
  0
TEXT
  5
B9
330
54
100
AcDbEntity
  8
A
  6
FIN
 62
     7
100
AcDbText
 10
289.5750732421875
 20
205.5
 30
0.0
 40
2.657142857142857
  1
20
 41
0.9200000000000001
  7
ARIAL
100
AcDbText
  0
LINE
  5
BA
330
54
100
AcDbEntity
  8
A
  6
FIN
 62
     7
100
AcDbLine
 10
297.0000610351563
 20
205.0
 30
0.0
 11
297.0000610351563
 21
210.0
 31
0.0
  0
LWPOLYLINE
  5
BB
330
54
100
AcDbEntity
  8
A
  6
FIN
 62
     7
100
AcDbPolyline
 90
        5
 70
     0
 43
0.0
 10
0.0
 20
20.0
 10
0.0
 20
210.0
 10
297.0
 20
210.0
 10
297.0
 20
20.0
 10
0.0
 20
20.0
  0
LWPOLYLINE
  5
C2
330
54
100
AcDbEntity
  8
A
  6
FIN
 62
     7
100
AcDbPolyline
 90
        5
 70
     0
 43
0.0
 10
0.0
 20
0.0
 10
0.0
 20
210.0
 10
297.0
 20
210.0
 10
297.0
 20
0.0
 10
0.0
 20
0.0
  0
ENDBLK
  5
CA
330
54
100
AcDbEntity
  8
0
100
AcDbBlockEnd
  0
BLOCK
  5
1A0
330
199
100
AcDbEntity
  8
0
100
AcDbBlockBegin
  2
141P0N_103_0_3_1
 70
     2
 10
0.0
 20
0.0
 30
0.0
  3
141P0N_103_0_3_1
  1

  0
ATTDEF
  5
19A
330
199
100
AcDbEntity
  8
A
  6
FIN
 62
     1
100
AcDbText
 10
-6.657202082691582
 20
-12.90268771863382
 30
0.0
 40
1.629261306524276
  1

 41
0.9200000000000001
  7
ARIAL
 72
     2
 11
-6.657202082691582
 21
-12.08805706537169
 31
0.0
100
AcDbAttributeDefinition
  3

  2
$POS_REFCRO_1
 70
     0
 74
     2
  0
ATTDEF
  5
19B
330
199
100
AcDbEntity
  8
A
  6
FIN
 62
     4
100
AcDbText
 10
-7.357948941173162
 20
-14.54069780183635
 30
0.0
 40
1.629261306524276
  1

 41
0.9200000000000001
  7
ARIAL
 72
     4
 11
-7.357948941173162
 21
-14.54069780183635
 31
0.0
100
AcDbAttributeDefinition
  3

  2
$INTER_CROREF_1
 70
     0
 74
     2
  0
LINE
  5
19C
330
199
100
AcDbEntity
  8
A
  6
SYMBOL_P
 62
     3
100
AcDbLine
 10
0.0
 20
0.0
 30
0.0
 11
0.0
 21
-2.102272737116521
 31
0.0
  0
LINE
  5
19D
330
199
100
AcDbEntity
  8
A
  6
SYMBOL_P
 62
     3
100
AcDbLine
 10
-1.751893877983093
 20
-2.102272737116521
 30
0.0
 11
1.751893877983093
 21
-2.102272737116521
 31
0.0
  0
LINE
  5
19E
330
199
100
AcDbEntity
  8
A
  6
SYMBOL_P
 62
     3
100
AcDbLine
 10
-1.051136159716236
 20
-2.803030455383378
 30
0.0
 11
1.051136159716236
 21
-2.803030455383378
 31
0.0
  0
LINE
  5
19F
330
199
100
AcDbEntity
  8
A
  6
SYMBOL_P
 62
     3
100
AcDbLine
 10
-0.3503784414493794
 20
-3.503788173650236
 30
0.0
 11
0.3503784414493794
 21
-3.503788173650236
 31
0.0
  0
ENDBLK
  5
1A1
330
199
100
AcDbEntity
  8
0
100
AcDbBlockEnd
  0
BLOCK
  5
1AC
330
1A3
100
AcDbEntity
  8
0
100
AcDbBlockBegin
  2
008C0_001_0_3_1
 70
     2
 10
0.0
 20
0.0
 30
0.0
  3
008C0_001_0_3_1
  1

  0
ATTDEF
  5
1A4
330
1A3
100
AcDbEntity
  8
A
  6
FIN
 62
     3
100
AcDbText
 10
0.464251872444469
 20
2.803030246541354
 30
0.0
 40
1.629261306524276
  1

 50
90.0
 41
0.9200000000000001
  7
ARIAL
 11
-0.3503787808176693
 21
2.803030246541354
 31
0.0
100
AcDbAttributeDefinition
  3

  2
$REPERE
 70
     0
 74
     2
  0
ATTDEF
  5
1A5
330
1A3
100
AcDbEntity
  8
A
  6
FIN
 62
     1
100
AcDbText
 10
0.4642505410765624
 20
2.803040897484607
 30
0.0
 40
1.629261306524276
  1

 50
90.0
 41
0.9200000000000001
  7
ARIAL
 11
-0.3503801121855759
 21
2.803040897484607
 31
0.0
100
AcDbAttributeDefinition
  3

  2
$POS_REFCRO_1
 70
     0
 74
     2
  0
LWPOLYLINE
  5
1A6
330
1A3
100
AcDbEntity
  8
A
  6
CYAN
 62
     4
100
AcDbPolyline
 90
        4
 70
     0
 43
0.0
 10
0.0
 20
0.0
 10
-0.8409090948466086
 20
1.681818189693216
 10
0.8409090948466086
 20
1.681818189693216
 10
0.0
 20
0.0
  0
ENDBLK
  5
1AD
330
1A3
100
AcDbEntity
  8
0
100
AcDbBlockEnd
  0
BLOCK
  5
1EB
330
1AF
100
AcDbEntity
  8
0
100
AcDbBlockBegin
  2
QD1P4_Q07_0_3_1
 70
     2
 10
0.0
 20
0.0
 30
0.0
  3
QD1P4_Q07_0_3_1
  1

  0
ATTDEF
  5
1B0
330
1AF
100
AcDbEntity
  8
A
  6
FIN
 62
     1
100
AcDbText
 10
0.8759469389915466
 20
-11.79337618563461
 30
0.0
 40
1.512885498915399
  1

 41
0.9200000000000001
  7
ARIAL
 11
0.8759469389915466
 21
-11.03693343617692
 31
0.0
100
AcDbAttributeDefinition
  3

  2
$PL:1
 70
     0
 74
     2
  0
ATTDEF
  5
1B1
330
1AF
100
AcDbEntity
  8
A
  6
FIN
 62
     3
100
AcDbText
 10
-3.503787755966186
 20
-5.076738104304197
 30
0.0
 40
2.094764536959783
  1

 41
0.9200000000000001
  7
ARIAL
 72
     2
 11
-3.503787755966186
 21
-4.029355835824305
 31
0.0
100
AcDbAttributeDefinition
  3

  2
$NOMCOMP
 70
     0
 74
     2
  0
ATTDEF
  5
1B2
330
1AF
100
AcDbEntity
  8
A
  6
FIN
 62
     4
100
AcDbText
 10
-3.503787755966186
 20
-7.82220616519451
 30
0.0
 40
1.629261306524276
  1

 41
0.9200000000000001
  7
ARIAL
 72
     2
 11
-3.503787755966186
 21
-7.007575511932372
 31
0.0
100
AcDbAttributeDefinition
  3

  2
IDNDDR
 70
     0
 74
     2
  0
ATTDEF
  5
1B3
330
1AF
100
AcDbEntity
  8
A
  6
FIN
 62
     1
100
AcDbText
 10
7.883522450923919
 20
-11.79337451489842
 30
0.0
 40
1.512885498915399
  1

 41
0.9200000000000001
  7
ARIAL
 11
7.883522450923919
 21
-11.03693176544073
 31
0.0
100
AcDbAttributeDefinition
  3

  2
$PL:2
 70
     0
 74
     2
  0
ATTDEF
  5
1B4
330
1AF
100
AcDbEntity
  8
A
  6
FIN
 62
     1
100
AcDbText
 10
14.89109796285628
 20
-11.79337451489842
 30
0.0
 40
1.512885498915399
  1

 41
0.9200000000000001
  7
ARIAL
 11
14.89109796285628
 21
-11.03693176544073
 31
0.0
100
AcDbAttributeDefinition
  3

  2
$PL:3
 70
     0
 74
     2
  0
ATTDEF
  5
1B5
330
1AF
100
AcDbEntity
  8
A
  6
FIN
 62
     1
100
AcDbText
 10
21.89867347478867
 20
-11.79337451489842
 30
0.0
 40
1.512885498915399
  1

 41
0.9200000000000001
  7
ARIAL
 11
21.89867347478867
 21
-11.03693176544073
 31
0.0
100
AcDbAttributeDefinition
  3

  2
$PL:4
 70
     0
 74
     2
  0
ATTDEF
  5
1B6
330
1AF
100
AcDbEntity
  8
A
  6
FIN
 62
     1
100
AcDbText
 10
-6.657202082691582
 20
-12.90268771863382
 30
0.0
 40
1.629261306524276
  1

 41
0.9200000000000001
  7
ARIAL
 72
     2
 11
-6.657202082691582
 21
-12.08805706537169
 31
0.0
100
AcDbAttributeDefinition
  3

  2
$POS_REFCRO_1
 70
     0
 74
     2
  0
ATTDEF
  5
1B7
330
1AF
100
AcDbEntity
  8
A
  6
FIN
 62
     4
100
AcDbText
 10
-7.357948941173162
 20
-14.54069780183635
 30
0.0
 40
1.629261306524276
  1

 41
0.9200000000000001
  7
ARIAL
 72
     4
 11
-7.357948941173162
 21
-14.54069780183635
 31
0.0
100
AcDbAttributeDefinition
  3

  2
$INTER_CROREF_1
 70
     0
 74
     2
  0
LINE
  5
1B8
330
1AF
100
AcDbEntity
  8
A
  6
POINT
 62
     3
100
AcDbLine
 10
-2.62784081697464
 20
3.503787755966186
 30
0.0
 11
-1.751893877983093
 21
3.503787755966186
 31
0.0
  0
LINE
  5
1B9
330
1AF
100
AcDbEntity
  8
A
  6
MOYEN
 62
     4
100
AcDbLine
 10
7.007575511932372
 20
-4.379734694957733
 30
0.0
 11
22.77462041378021
 21
-4.379734694957733
 31
0.0
  0
LINE
  5
1BA
330
1AF
100
AcDbEntity
  8
A
  6
MOYEN
 62
     4
100
AcDbLine
 10
14.01515102386475
 20
-9.635416328907011
 30
0.0
 11
23.65056735277176
 21
-9.635416328907011
 31
0.0
  0
LINE
  5
1BB
330
1AF
100
AcDbEntity
  8
A
  6
MOYEN
 62
     4
100
AcDbLine
 10
28.90624898672104
 20
-4.379734694957733
 30
0.0
 11
28.90624898672104
 21
-5.25568163394928
 31
0.0
  0
LINE
  5
1BC
330
1AF
100
AcDbEntity
  8
A
  6
MOYEN
 62
     4
100
AcDbLine
 10
28.90624898672104
 20
-8.759469389915466
 30
0.0
 11
28.90624898672104
 21
-9.635416328907011
 31
0.0
  0
LINE
  5
1BD
330
1AF
100
AcDbEntity
  8
A
  6
MOYEN
 62
     4
100
AcDbLine
 10
27.15435510873795
 20
-9.635416328907011
 30
0.0
 11
28.90624898672104
 21
-9.635416328907011
 31
0.0
  0
LINE
  5
1BE
330
1AF
100
AcDbEntity
  8
A
  6
SYMBOL_C
 62
     4
100
AcDbLine
 10
27.15435510873795
 20
-9.635416328907011
 30
0.0
 11
23.65056735277176
 21
-11.03693343617692
 31
0.0
  0
LINE
  5
1BF
330
1AF
100
AcDbEntity
  8
A
  6
MOYEN
 62
     4
100
AcDbLine
 10
24.52651429176331
 20
-11.91287870443227
 30
0.0
 11
26.27840816974639
 21
-11.91287870443227
 31
0.0
  0
LINE
  5
1C0
330
1AF
100
AcDbEntity
  8
A
  6
MOYEN
 62
     4
100
AcDbLine
 10
26.27840816974639
 20
-11.91287870443227
 30
0.0
 11
26.27840816974639
 21
-11.3873118776263
 31
0.0
  0
LINE
  5
1C1
330
1AF
100
AcDbEntity
  8
A
  6
MOYEN
 62
     4
100
AcDbLine
 10
24.52651429176331
 20
-11.91287870443227
 30
0.0
 11
24.52651429176331
 21
-11.3873118776263
 31
0.0
  0
LINE
  5
1C2
330
1AF
100
AcDbEntity
  8
A
  6
POINT
 62
     3
100
AcDbLine
 10
25.40246123075485
 20
-11.91287870443227
 30
0.0
 11
25.40246123075485
 21
-10.33617404717386
 31
0.0
  0
LINE
  5
1C3
330
1AF
100
AcDbEntity
  8
A
  6
SYMBOL_C
 62
     4
100
AcDbLine
 10
28.90624898672104
 20
-8.759469389915466
 30
0.0
 11
27.32954516483073
 21
-5.25568163394928
 31
0.0
  0
LINE
  5
1C4
330
1AF
100
AcDbEntity
  8
A
  6
POINT
 62
     3
100
AcDbLine
 10
28.03030204772948
 20
-7.007575511932372
 30
0.0
 11
22.949810469873
 21
-7.007575511932372
 31
0.0
  0
LINE
  5
1C5
330
1AF
100
AcDbEntity
  8
A
  6
POINT
 62
     3
100
AcDbLine
 10
-1.57670455283739
 20
-7.007575511932372
 30
0.0
 11
-2.62784081697464
 21
-7.007575511932372
 31
0.0
  0
LINE
  5
1C6
330
1AF
100
AcDbEntity
  8
A
  6
POINT
 62
     3
100
AcDbLine
 10
-2.62784081697464
 20
-7.007575511932372
 30
0.0
 11
-2.62784081697464
 21
3.503787755966186
 31
0.0
  0
LINE
  5
1C7
330
1AF
100
AcDbEntity
  8
A
  6
SYMBOL_P
 62
     3
100
AcDbLine
 10
0.0
 20
0.0
 30
0.0
 11
0.0
 21
-10.51136326789856
 31
0.0
  0
LINE
  5
1C8
330
1AF
100
AcDbEntity
  8
A
  6
SYMBOL_P
 62
     3
100
AcDbLine
 10
7.007575511932372
 20
0.0
 30
0.0
 11
7.007575511932372
 21
-10.51136326789856
 31
0.0
  0
LINE
  5
1C9
330
1AF
100
AcDbEntity
  8
A
  6
SYMBOL_P
 62
     3
100
AcDbLine
 10
21.02272653579712
 20
0.0
 30
0.0
 11
21.02272653579712
 21
-10.51136326789856
 31
0.0
  0
LINE
  5
1CA
330
1AF
100
AcDbEntity
  8
A
  6
SYMBOL_P
 62
     3
100
AcDbLine
 10
14.01515102386475
 20
0.0
 30
0.0
 11
14.01515102386475
 21
-10.51136326789856
 31
0.0
  0
LINE
  5
1CB
330
1AF
100
AcDbEntity
  8
A
  6
MOYEN
 62
     4
100
AcDbLine
 10
-0.189037117689395
 20
-5.835893229534236
 30
0.0
 11
21.55707475205189
 21
-5.835121349411451
 31
0.0
  0
LINE
  5
1CC
330
1AF
100
AcDbEntity
  8
A
  6
MOYEN
 62
     4
100
AcDbLine
 10
-0.5096488876937997
 20
-8.275929932132498
 30
0.0
 11
21.83678272312544
 21
-8.275929932132498
 31
0.0
  0
ARC
  5
1CD
330
1AF
100
AcDbEntity
  8
A
  6
MOYEN
 62
     4
100
AcDbCircle
 10
-0.358516126871109
 20
-7.054706573486327
 30
0.0
 40
1.23054015636444
100
AcDbArc
 50
82.08364222078252
 51
262.9452280061283
  0
ARC
  5
1CE
330
1AF
100
AcDbEntity
  8
A
  6
MOYEN
 62
     4
100
AcDbCircle
 10
21.72968101501465
 20
-7.051772594451903
 30
0.0
 40
1.228834033012389
100
AcDbArc
 50
275.0000944938204
 51
98.07466450322301
  0
LINE
  5
1CF
330
1AF
100
AcDbEntity
  8
A
  6
MOYEN
 62
     4
100
AcDbLine
 10
26.27840816974639
 20
-4.379734694957733
 30
0.0
 11
28.90624898672104
 21
-4.379734694957733
 31
0.0
  0
CIRCLE
  5
1D0
330
1AF
100
AcDbEntity
  8
A
  6
MOYEN
 62
     4
100
AcDbCircle
 10
7.007575511932372
 20
-4.379734694957733
 30
0.0
 40
0.3503784414493794
  0
LINE
  5
1D1
330
1AF
100
AcDbEntity
  8
A
  6
MOYEN
 62
     4
100
AcDbLine
 10
6.704241242620042
 20
-4.554703378504485
 30
0.0
 11
7.310909363560652
 21
-4.554703378504485
 31
0.0
  0
LINE
  5
1D2
330
1AF
100
AcDbEntity
  8
A
  6
MOYEN
 62
     4
100
AcDbLine
 10
7.357790221234495
 20
-4.379514157779794
 30
0.0
 11
6.657359549578104
 21
-4.379514157779794
 31
0.0
  0
LINE
  5
1D3
330
1AF
100
AcDbEntity
  8
A
  6
MOYEN
 62
     4
100
AcDbLine
 10
6.704417505288773
 20
-4.204324101687006
 30
0.0
 11
7.310732265523824
 21
-4.204324101687006
 31
0.0
  0
LINE
  5
1D4
330
1AF
100
AcDbEntity
  8
A
  6
MOYEN
 62
     4
100
AcDbLine
 10
6.704241242620042
 20
-4.554703378504485
 30
0.0
 11
7.310909363560652
 21
-4.554703378504485
 31
0.0
  0
LINE
  5
1D5
330
1AF
100
AcDbEntity
  8
A
  6
MOYEN
 62
     4
100
AcDbLine
 10
7.357790221234495
 20
-4.379514157779794
 30
0.0
 11
6.657359549578104
 21
-4.379514157779794
 31
0.0
  0
LINE
  5
1D6
330
1AF
100
AcDbEntity
  8
A
  6
MOYEN
 62
     4
100
AcDbLine
 10
6.704417505288773
 20
-4.204324101687006
 30
0.0
 11
7.310732265523824
 21
-4.204324101687006
 31
0.0
  0
LINE
  5
1D7
330
1AF
100
AcDbEntity
  8
A
  6
MOYEN
 62
     4
100
AcDbLine
 10
7.182707092258281
 20
-4.683123680880498
 30
0.0
 11
7.182707092258281
 21
-4.076512782654617
 31
0.0
  0
LINE
  5
1D8
330
1AF
100
AcDbEntity
  8
A
  6
MOYEN
 62
     4
100
AcDbLine
 10
7.007517453849544
 20
-4.02935792424455
 30
0.0
 11
7.007517453849544
 21
-4.729892599229173
 31
0.0
  0
LINE
  5
1D9
330
1AF
100
AcDbEntity
  8
A
  6
MOYEN
 62
     4
100
AcDbLine
 10
6.832327397756757
 20
-4.683223925052288
 30
0.0
 11
6.832327397756757
 21
-4.076577941366281
 31
0.0
  0
CIRCLE
  5
1DA
330
1AF
100
AcDbEntity
  8
A
  6
MOYEN
 62
     4
100
AcDbCircle
 10
14.01515102386475
 20
-9.635416328907011
 30
0.0
 40
0.3503784414493794
  0
LINE
  5
1DB
330
1AF
100
AcDbEntity
  8
A
  6
MOYEN
 62
     4
100
AcDbLine
 10
13.71181717223647
 20
-9.810385012453762
 30
0.0
 11
14.31848487549302
 21
-9.810385012453762
 31
0.0
  0
LINE
  5
1DC
330
1AF
100
AcDbEntity
  8
A
  6
MOYEN
 62
     4
100
AcDbLine
 10
14.36536573316686
 20
-9.635195791729076
 30
0.0
 11
13.66493464382642
 21
-9.635195791729076
 31
0.0
  0
LINE
  5
1DD
330
1AF
100
AcDbEntity
  8
A
  6
MOYEN
 62
     4
100
AcDbLine
 10
13.7119925995371
 20
-9.460005735636286
 30
0.0
 11
14.3183077774562
 21
-9.460005735636286
 31
0.0
  0
LINE
  5
1DE
330
1AF
100
AcDbEntity
  8
A
  6
MOYEN
 62
     4
100
AcDbLine
 10
13.71181717223647
 20
-9.810385012453762
 30
0.0
 11
14.31848487549302
 21
-9.810385012453762
 31
0.0
  0
LINE
  5
1DF
330
1AF
100
AcDbEntity
  8
A
  6
MOYEN
 62
     4
100
AcDbLine
 10
14.36536573316686
 20
-9.635195791729076
 30
0.0
 11
13.66493464382642
 21
-9.635195791729076
 31
0.0
  0
LINE
  5
1E0
330
1AF
100
AcDbEntity
  8
A
  6
MOYEN
 62
     4
100
AcDbLine
 10
13.7119925995371
 20
-9.460005735636286
 30
0.0
 11
14.3183077774562
 21
-9.460005735636286
 31
0.0
  0
LINE
  5
1E1
330
1AF
100
AcDbEntity
  8
A
  6
MOYEN
 62
     4
100
AcDbLine
 10
14.19028260419066
 20
-9.93880531482978
 30
0.0
 11
14.19028260419066
 21
-9.332194416603899
 31
0.0
  0
LINE
  5
1E2
330
1AF
100
AcDbEntity
  8
A
  6
MOYEN
 62
     4
100
AcDbLine
 10
14.01509254809786
 20
-9.28503955819383
 30
0.0
 11
14.01509254809786
 21
-9.985574233178454
 31
0.0
  0
LINE
  5
1E3
330
1AF
100
AcDbEntity
  8
A
  6
MOYEN
 62
     4
100
AcDbLine
 10
13.83990249200508
 20
-9.938905559001568
 30
0.0
 11
13.83990249200508
 21
-9.332259575315559
 31
0.0
  0
LWPOLYLINE
  5
1E4
330
1AF
100
AcDbEntity
  8
A
  6
MOYEN
 62
     4
100
AcDbPolyline
 90
        5
 70
     0
 43
0.0
 10
22.77462041378021
 20
-3.854166615099615
 10
22.77462041378021
 20
-4.905302774815851
 10
26.27840816974639
 20
-4.905302774815851
 10
26.27840816974639
 20
-3.854166615099615
 10
22.77462041378021
 20
-3.854166615099615
  0
ENDBLK
  5
1EC
330
1AF
100
AcDbEntity
  8
0
100
AcDbBlockEnd
  0
BLOCK
  5
20E
330
1F4
100
AcDbEntity
  8
0
100
AcDbBlockBegin
  2
Q89P4N_Q05_0_3_1
 70
     2
 10
0.0
 20
0.0
 30
0.0
  3
Q89P4N_Q05_0_3_1
  1

  0
ATTDEF
  5
1F5
330
1F4
100
AcDbEntity
  8
A
  6
FIN
 62
     3
100
AcDbText
 10
-5.25568163394928
 20
-4.200791374154674
 30
0.0
 40
2.094764536959783
  1

 41
0.9200000000000001
  7
ARIAL
 72
     2
 11
-5.25568163394928
 21
-3.153409105674783
 31
0.0
100
AcDbAttributeDefinition
  3

  2
$NOMCOMP
 70
     0
 74
     2
  0
ATTDEF
  5
1F6
330
1F4
100
AcDbEntity
  8
A
  6
FIN
 62
     1
100
AcDbText
 10
-7.007575511932372
 20
-6.946259226202965
 30
0.0
 40
1.629261306524276
  1

 41
0.9200000000000001
  7
ARIAL
 72
     2
 11
-7.007575511932372
 21
-6.131628572940826
 31
0.0
100
AcDbAttributeDefinition
  3

  2
IN
 70
     0
 74
     2
  0
ATTDEF
  5
1F7
330
1F4
100
AcDbEntity
  8
A
  6
FIN
 62
     1
100
AcDbText
 10
0.8759469389915466
 20
0.2946936191005609
 30
0.0
 40
1.512885498915399
  1

 41
0.9200000000000001
  7
ARIAL
 11
0.8759469389915466
 21
1.05113636855826
 31
0.0
100
AcDbAttributeDefinition
  3

  2
$PL:1
 70
     0
 74
     2
  0
ATTDEF
  5
1F8
330
1F4
100
AcDbEntity
  8
A
  6
FIN
 62
     1
100
AcDbText
 10
0.8759469389915466
 20
-8.289586758932239
 30
0.0
 40
1.512885498915399
  1

 41
0.9200000000000001
  7
ARIAL
 11
0.8759469389915466
 21
-7.533144009474539
 31
0.0
100
AcDbAttributeDefinition
  3

  2
$PL:2
 70
     0
 74
     2
  0
ATTDEF
  5
1F9
330
1F4
100
AcDbEntity
  8
A
  6
FIN
 62
     1
100
AcDbText
 10
7.883522450923919
 20
0.2946936191005609
 30
0.0
 40
1.512885498915399
  1

 41
0.9200000000000001
  7
ARIAL
 11
7.883522450923919
 21
1.05113636855826
 31
0.0
100
AcDbAttributeDefinition
  3

  2
$PL:3
 70
     0
 74
     2
  0
ATTDEF
  5
1FA
330
1F4
100
AcDbEntity
  8
A
  6
FIN
 62
     1
100
AcDbText
 10
7.883522450923919
 20
-8.289586758932239
 30
0.0
 40
1.512885498915399
  1

 41
0.9200000000000001
  7
ARIAL
 11
7.883522450923919
 21
-7.533144009474539
 31
0.0
100
AcDbAttributeDefinition
  3

  2
$PL:4
 70
     0
 74
     2
  0
ATTDEF
  5
1FB
330
1F4
100
AcDbEntity
  8
A
  6
FIN
 62
     1
100
AcDbText
 10
14.89109796285628
 20
0.2946936191005609
 30
0.0
 40
1.512885498915399
  1

 41
0.9200000000000001
  7
ARIAL
 11
14.89109796285628
 21
1.05113636855826
 31
0.0
100
AcDbAttributeDefinition
  3

  2
$PL:5
 70
     0
 74
     2
  0
ATTDEF
  5
1FC
330
1F4
100
AcDbEntity
  8
A
  6
FIN
 62
     1
100
AcDbText
 10
14.89109796285628
 20
-8.289586758932239
 30
0.0
 40
1.512885498915399
  1

 41
0.9200000000000001
  7
ARIAL
 11
14.89109796285628
 21
-7.533144009474539
 31
0.0
100
AcDbAttributeDefinition
  3

  2
$PL:6
 70
     0
 74
     2
  0
ATTDEF
  5
1FD
330
1F4
100
AcDbEntity
  8
A
  6
FIN
 62
     1
100
AcDbText
 10
21.89867347478867
 20
0.2946936191005609
 30
0.0
 40
1.512885498915399
  1

 41
0.9200000000000001
  7
ARIAL
 11
21.89867347478867
 21
1.05113636855826
 31
0.0
100
AcDbAttributeDefinition
  3

  2
$PL:7
 70
     0
 74
     2
  0
ATTDEF
  5
1FE
330
1F4
100
AcDbEntity
  8
A
  6
FIN
 62
     1
100
AcDbText
 10
21.89867347478867
 20
-8.289586758932239
 30
0.0
 40
1.512885498915399
  1

 41
0.9200000000000001
  7
ARIAL
 11
21.89867347478867
 21
-7.533144009474539
 31
0.0
100
AcDbAttributeDefinition
  3

  2
$PL:8
 70
     0
 74
     2
  0
ATTDEF
  5
1FF
330
1F4
100
AcDbEntity
  8
A
  6
FIN
 62
     3
100
AcDbText
 10
-5.25568163394928
 20
1.696834356103624
 30
0.0
 40
1.86201292174203
  1

 41
0.9200000000000001
  7
ARIAL
 72
     2
 11
-5.25568163394928
 21
2.62784081697464
 31
0.0
100
AcDbAttributeDefinition
  3

  2
$FONCTION
 70
     0
 74
     2
  0
ATTDEF
  5
200
330
1F4
100
AcDbEntity
  8
A
  6
FIN
 62
     3
100
AcDbText
 10
-5.25568163394928
 20
-0.9310064608710154
 30
0.0
 40
1.86201292174203
  1

 41
0.9200000000000001
  7
ARIAL
 72
     2
 11
-5.25568163394928
 21
0.0
 31
0.0
100
AcDbAttributeDefinition
  3

  2
$LOCALISATION
 70
     0
 74
     2
  0
ATTDEF
  5
201
330
1F4
100
AcDbEntity
  8
A
  6
FIN
 62
     4
100
AcDbText
 10
-5.25568163394928
 20
-6.946259226202965
 30
0.0
 40
1.629261306524276
  1

 41
0.9200000000000001
  7
ARIAL
 72
     2
 11
-5.25568163394928
 21
-6.131628572940826
 31
0.0
100
AcDbAttributeDefinition
  3

  2
UNITE_IN
 70
     0
 74
     2
  0
ATTDEF
  5
202
330
1F4
100
AcDbEntity
  8
A
  6
FIN
 62
     1
100
AcDbText
 10
22.77462041378021
 20
-9.574100043177605
 30
0.0
 40
1.629261306524276
  1

 41
0.9200000000000001
  7
ARIAL
 11
22.77462041378021
 21
-8.759469389915466
 31
0.0
100
AcDbAttributeDefinition
  3

  2
NBPOLE
 70
     0
 74
     2
  0
ATTDEF
  5
203
330
1F4
100
AcDbEntity
  8
A
  6
FIN
 62
     1
100
AcDbText
 10
-6.131628572940826
 20
-9.574100043177605
 30
0.0
 40
1.629261306524276
  1

 41
0.9200000000000001
  7
ARIAL
 72
     2
 11
-6.131628572940826
 21
-8.759469389915466
 31
0.0
100
AcDbAttributeDefinition
  3

  2
$POS_REFCRO_1
 70
     0
 74
     2
  0
ATTDEF
  5
204
330
1F4
100
AcDbEntity
  8
A
  6
FIN
 62
     4
100
AcDbText
 10
-7.357948941173162
 20
-10.86176342891848
 30
0.0
 40
1.629261306524276
  1

 41
0.9200000000000001
  7
ARIAL
 72
     4
 11
-7.357948941173162
 21
-10.86176342891848
 31
0.0
100
AcDbAttributeDefinition
  3

  2
$INTER_CROREF_1
 70
     0
 74
     2
  0
LINE
  5
205
330
1F4
100
AcDbEntity
  8
A
  6
SYMBOL_P
 62
     3
100
AcDbLine
 10
0.0
 20
-7.007575511932372
 30
0.0
 11
-3.503787755966186
 21
0.0
 31
0.0
  0
LINE
  5
206
330
1F4
100
AcDbEntity
  8
A
  6
MOYEN
 62
     4
100
AcDbLine
 10
-0.8759469389915466
 20
0.0
 30
0.0
 11
0.8759469389915466
 21
0.0
 31
0.0
  0
LINE
  5
207
330
1F4
100
AcDbEntity
  8
A
  6
SYMBOL_P
 62
     3
100
AcDbLine
 10
7.007575511932372
 20
-7.007575511932372
 30
0.0
 11
3.503787755966186
 21
0.0
 31
0.0
  0
LINE
  5
208
330
1F4
100
AcDbEntity
  8
A
  6
SYMBOL_P
 62
     3
100
AcDbLine
 10
14.01515102386475
 20
-7.007575511932372
 30
0.0
 11
10.51136326789856
 21
0.0
 31
0.0
  0
LINE
  5
209
330
1F4
100
AcDbEntity
  8
A
  6
SYMBOL_P
 62
     3
100
AcDbLine
 10
21.02272653579712
 20
-7.007575511932372
 30
0.0
 11
17.51893877983093
 21
0.0
 31
0.0
  0
LINE
  5
20A
330
1F4
100
AcDbEntity
  8
A
  6
MOYEN
 62
     4
100
AcDbLine
 10
6.131628572940826
 20
0.0
 30
0.0
 11
7.883522450923919
 21
0.0
 31
0.0
  0
LINE
  5
20B
330
1F4
100
AcDbEntity
  8
A
  6
MOYEN
 62
     4
100
AcDbLine
 10
13.13920408487319
 20
0.0
 30
0.0
 11
14.89109796285628
 21
0.0
 31
0.0
  0
LINE
  5
20C
330
1F4
100
AcDbEntity
  8
A
  6
MOYEN
 62
     4
100
AcDbLine
 10
20.14677959680557
 20
0.0
 30
0.0
 11
21.89867347478867
 21
0.0
 31
0.0
  0
LINE
  5
20D
330
1F4
100
AcDbEntity
  8
A
  6
POINT
 62
     3
100
AcDbLine
 10
-1.751893877983093
 20
-3.503787755966186
 30
0.0
 11
19.27083265781402
 21
-3.503787755966186
 31
0.0
  0
ENDBLK
  5
20F
330
1F4
100
AcDbEntity
  8
0
100
AcDbBlockEnd
  0
BLOCK
  5
233
330
221
100
AcDbEntity
  8
0
100
AcDbBlockBegin
  2
Q09P2N_Q01_0_3_1
 70
     2
 10
0.0
 20
0.0
 30
0.0
  3
Q09P2N_Q01_0_3_1
  1

  0
ATTDEF
  5
222
330
221
100
AcDbEntity
  8
A
  6
FIN
 62
     3
100
AcDbText
 10
-5.25568163394928
 20
-4.200791374154674
 30
0.0
 40
2.094764536959783
  1

 41
0.9200000000000001
  7
ARIAL
 72
     2
 11
-5.25568163394928
 21
-3.153409105674783
 31
0.0
100
AcDbAttributeDefinition
  3

  2
$NOMCOMP
 70
     0
 74
     2
  0
ATTDEF
  5
223
330
221
100
AcDbEntity
  8
A
  6
FIN
 62
     1
100
AcDbText
 10
-7.007575511932372
 20
-6.946259226202965
 30
0.0
 40
1.629261306524276
  1

 41
0.9200000000000001
  7
ARIAL
 72
     2
 11
-7.007575511932372
 21
-6.131628572940826
 31
0.0
100
AcDbAttributeDefinition
  3

  2
IN
 70
     0
 74
     2
  0
ATTDEF
  5
224
330
221
100
AcDbEntity
  8
A
  6
FIN
 62
     1
100
AcDbText
 10
0.8759469389915466
 20
0.2946936191005609
 30
0.0
 40
1.512885498915399
  1

 41
0.9200000000000001
  7
ARIAL
 11
0.8759469389915466
 21
1.05113636855826
 31
0.0
100
AcDbAttributeDefinition
  3

  2
$PL:1
 70
     0
 74
     2
  0
ATTDEF
  5
225
330
221
100
AcDbEntity
  8
A
  6
FIN
 62
     1
100
AcDbText
 10
0.8759469389915466
 20
-8.289586758932239
 30
0.0
 40
1.512885498915399
  1

 41
0.9200000000000001
  7
ARIAL
 11
0.8759469389915466
 21
-7.533144009474539
 31
0.0
100
AcDbAttributeDefinition
  3

  2
$PL:2
 70
     0
 74
     2
  0
ATTDEF
  5
226
330
221
100
AcDbEntity
  8
A
  6
FIN
 62
     1
100
AcDbText
 10
7.883522450923919
 20
0.2946936191005609
 30
0.0
 40
1.512885498915399
  1

 41
0.9200000000000001
  7
ARIAL
 11
7.883522450923919
 21
1.05113636855826
 31
0.0
100
AcDbAttributeDefinition
  3

  2
$PL:3
 70
     0
 74
     2
  0
ATTDEF
  5
227
330
221
100
AcDbEntity
  8
A
  6
FIN
 62
     1
100
AcDbText
 10
7.883522450923919
 20
-8.289586758932239
 30
0.0
 40
1.512885498915399
  1

 41
0.9200000000000001
  7
ARIAL
 11
7.883522450923919
 21
-7.533144009474539
 31
0.0
100
AcDbAttributeDefinition
  3

  2
$PL:4
 70
     0
 74
     2
  0
ATTDEF
  5
228
330
221
100
AcDbEntity
  8
A
  6
FIN
 62
     3
100
AcDbText
 10
-5.25568163394928
 20
1.696834356103624
 30
0.0
 40
1.86201292174203
  1

 41
0.9200000000000001
  7
ARIAL
 72
     2
 11
-5.25568163394928
 21
2.62784081697464
 31
0.0
100
AcDbAttributeDefinition
  3

  2
$FONCTION
 70
     0
 74
     2
  0
ATTDEF
  5
229
330
221
100
AcDbEntity
  8
A
  6
FIN
 62
     3
100
AcDbText
 10
-5.25568163394928
 20
-0.9310064608710154
 30
0.0
 40
1.86201292174203
  1

 41
0.9200000000000001
  7
ARIAL
 72
     2
 11
-5.25568163394928
 21
0.0
 31
0.0
100
AcDbAttributeDefinition
  3

  2
$LOCALISATION
 70
     0
 74
     2
  0
ATTDEF
  5
22A
330
221
100
AcDbEntity
  8
A
  6
FIN
 62
     4
100
AcDbText
 10
-5.25568163394928
 20
-6.946259226202965
 30
0.0
 40
1.629261306524276
  1

 41
0.9200000000000001
  7
ARIAL
 72
     2
 11
-5.25568163394928
 21
-6.131628572940826
 31
0.0
100
AcDbAttributeDefinition
  3

  2
UNITE_IN
 70
     0
 74
     2
  0
ATTDEF
  5
22B
330
221
100
AcDbEntity
  8
A
  6
FIN
 62
     1
100
AcDbText
 10
8.759469389915466
 20
-9.574100043177605
 30
0.0
 40
1.629261306524276
  1

 41
0.9200000000000001
  7
ARIAL
 11
8.759469389915466
 21
-8.759469389915466
 31
0.0
100
AcDbAttributeDefinition
  3

  2
NBPOLEDEC
 70
     0
 74
     2
  0
ATTDEF
  5
22C
330
221
100
AcDbEntity
  8
A
  6
FIN
 62
     1
100
AcDbText
 10
-6.131628572940826
 20
-9.574100043177605
 30
0.0
 40
1.629261306524276
  1

 41
0.9200000000000001
  7
ARIAL
 72
     2
 11
-6.131628572940826
 21
-8.759469389915466
 31
0.0
100
AcDbAttributeDefinition
  3

  2
$POS_REFCRO_1
 70
     0
 74
     2
  0
ATTDEF
  5
22D
330
221
100
AcDbEntity
  8
A
  6
FIN
 62
     4
100
AcDbText
 10
-7.357948941173162
 20
-10.86173669713935
 30
0.0
 40
1.629261306524276
  1

 41
0.9200000000000001
  7
ARIAL
 72
     4
 11
-7.357948941173162
 21
-10.86173669713935
 31
0.0
100
AcDbAttributeDefinition
  3

  2
$INTER_CROREF_1
 70
     0
 74
     2
  0
LINE
  5
22E
330
221
100
AcDbEntity
  8
A
  6
POINT
 62
     3
100
AcDbLine
 10
5.25568163394928
 20
-3.503787755966186
 30
0.0
 11
-1.751893877983093
 21
-3.503787755966186
 31
0.0
  0
LINE
  5
22F
330
221
100
AcDbEntity
  8
A
  6
SYMBOL_P
 62
     3
100
AcDbLine
 10
-3.503787755966186
 20
0.0
 30
0.0
 11
0.0
 21
-7.007575511932372
 31
0.0
  0
LINE
  5
230
330
221
100
AcDbEntity
  8
A
  6
SYMBOL_P
 62
     3
100
AcDbLine
 10
7.007575511932372
 20
-7.007575511932372
 30
0.0
 11
3.503787755966186
 21
0.0
 31
0.0
  0
LINE
  5
231
330
221
100
AcDbEntity
  8
A
  6
MOYEN
 62
     4
100
AcDbLine
 10
6.306817793665516
 20
0.7007577182668571
 30
0.0
 11
7.70833323019923
 21
-0.7007577182668571
 31
0.0
  0
LINE
  5
232
330
221
100
AcDbEntity
  8
A
  6
MOYEN
 62
     4
100
AcDbLine
 10
6.306817793665516
 20
-0.7007577182668571
 30
0.0
 11
7.70833323019923
 21
0.7007577182668571
 31
0.0
  0
ENDBLK
  5
234
330
221
100
AcDbEntity
  8
0
100
AcDbBlockEnd
  0
BLOCK
  5
249
330
23D
100
AcDbEntity
  8
0
100
AcDbBlockBegin
  2
010C0_001_0_3_1
 70
     2
 10
0.0
 20
0.0
 30
0.0
  3
010C0_001_0_3_1
  1

  0
ATTDEF
  5
23E
330
23D
100
AcDbEntity
  8
A
  6
FIN
 62
     3
100
AcDbText
 10
0.5806276800533461
 20
-3.153409105674783
 30
0.0
 40
1.86201292174203
  1

 50
90.0
 41
0.9200000000000001
  7
ARIAL
 72
     2
 11
-0.3503787808176693
 21
-3.153409105674783
 31
0.0
100
AcDbAttributeDefinition
  3

  2
$REPERE
 70
     0
 74
     2
  0
ATTDEF
  5
23F
330
23D
100
AcDbEntity
  8
A
  6
FIN
 62
     1
100
AcDbText
 10
-1.287642083854383
 20
1.751893877983093
 30
0.0
 40
1.629261306524276
  1

 50
90.0
 41
0.9200000000000001
  7
ARIAL
 11
-2.102272737116521
 21
1.751893877983093
 31
0.0
100
AcDbAttributeDefinition
  3

  2
$NUM_EQUI
 70
     0
 74
     2
  0
ATTDEF
  5
240
330
23D
100
AcDbEntity
  8
A
  6
FIN
 62
     1
100
AcDbText
 10
0.4642505410765624
 20
-3.153387594946252
 30
0.0
 40
1.629261306524276
  1

 50
90.0
 41
0.9200000000000001
  7
ARIAL
 72
     2
 11
-0.3503801121855759
 21
-3.153387594946252
 31
0.0
100
AcDbAttributeDefinition
  3

  2
$POS_REFCRO_1
 70
     0
 74
     2
  0
LWPOLYLINE
  5
241
330
23D
100
AcDbEntity
  8
A
  6
MOYEN
 62
     4
100
AcDbPolyline
 90
        5
 70
     0
 43
0.0
 10
0.0
 20
-2.102272319432473
 10
0.8409090948466086
 20
0.0
 10
0.0
 20
-0.4204541297392553
 10
-0.8409090948466086
 20
0.0
 10
0.0
 20
-2.102272319432473
  0
LINE
  5
248
330
23D
100
AcDbEntity
  8
A
  6
MOYEN
 62
     4
100
AcDbLine
 10
0.0
 20
0.0
 30
0.0
 11
0.0
 21
-0.4204541297392553
 31
0.0
  0
ENDBLK
  5
24A
330
23D
100
AcDbEntity
  8
0
100
AcDbBlockEnd
  0
BLOCK
  5
2EC
330
254
100
AcDbEntity
  8
0
100
AcDbBlockBegin
  2
_I188_KNX_0_3_1
 70
     2
 10
0.0
 20
0.0
 30
0.0
  3
_I188_KNX_0_3_1
  1

  0
ATTDEF
  5
255
330
254
100
AcDbEntity
  8
A
  6
FIN
 62
     3
100
AcDbText
 10
-8.759469389915466
 20
-8.755714663311024
 30
0.0
 40
2.094764536959783
  1

 41
0.9200000000000001
  7
ARIAL
 72
     2
 11
-8.759469389915466
 21
-7.708332394831132
 31
0.0
100
AcDbAttributeDefinition
  3

  2
$ETIQUETTE
 70
     0
 74
     2
  0
ATTDEF
  5
256
330
254
100
AcDbEntity
  8
A
  6
FIN
 62
     3
100
AcDbText
 10
-8.759469389915466
 20
-5.485931211921537
 30
0.0
 40
1.86201292174203
  1

 41
0.9200000000000001
  7
ARIAL
 72
     2
 11
-8.759469389915466
 21
-4.554924751050521
 31
0.0
100
AcDbAttributeDefinition
  3

  2
$LOCALISATION
 70
     0
 74
     2
  0
ATTDEF
  5
257
330
254
100
AcDbEntity
  8
A
  6
FIN
 62
     3
100
AcDbText
 10
-8.759469389915466
 20
-2.682900338854108
 30
0.0
 40
1.86201292174203
  1

 41
0.9200000000000001
  7
ARIAL
 72
     2
 11
-8.759469389915466
 21
-1.751893877983093
 31
0.0
100
AcDbAttributeDefinition
  3

  2
$FONCTION
 70
     0
 74
     2
  0
ATTDEF
  5
258
330
254
100
AcDbEntity
  8
A
  6
FIN
 62
     1
100
AcDbText
 10
-8.759469389915466
 20
-14.12902479422813
 30
0.0
 40
1.629261306524276
  1

 41
0.9200000000000001
  7
ARIAL
 72
     2
 11
-8.759469389915466
 21
-13.31439414096599
 31
0.0
100
AcDbAttributeDefinition
  3

  2
$CODE
 70
     0
 74
     2
  0
ATTDEF
  5
259
330
254
100
AcDbEntity
  8
A
  6
FIN
 62
     1
100
AcDbText
 10
-8.759469389915466
 20
-21.83735718905926
 30
0.0
 40
1.629261306524276
  1

 41
0.9200000000000001
  7
ARIAL
 72
     2
 11
-8.759469389915466
 21
-21.02272653579712
 31
0.0
100
AcDbAttributeDefinition
  3

  2
SYMBOLE
 70
     0
 74
     2
  0
ATTDEF
  5
25A
330
254
100
AcDbEntity
  8
A
  6
FIN
 62
     1
100
AcDbText
 10
-8.759469389915466
 20
-11.67637403334627
 30
0.0
 40
1.629261306524276
  1

 41
0.9200000000000001
  7
ARIAL
 72
     2
 11
-8.759469389915466
 21
-10.86174338008414
 31
0.0
100
AcDbAttributeDefinition
  3

  2
FABRICANT
 70
     0
 74
     2
  0
ATTDEF
  5
25B
330
254
100
AcDbEntity
  8
A
  6
FIN
 62
     1
100
AcDbText
 10
-8.759469389915466
 20
-16.93205566729555
 30
0.0
 40
1.629261306524276
  1

 41
0.9200000000000001
  7
ARIAL
 72
     2
 11
-8.759469389915466
 21
-16.11742501403341
 31
0.0
100
AcDbAttributeDefinition
  3

  2
SERIE
 70
     0
 74
     2
  0
ATTDEF
  5
25C
330
254
100
AcDbEntity
  8
A
  6
FIN
 62
     1
100
AcDbText
 10
-8.759469389915466
 20
-19.3847064281774
 30
0.0
 40
1.629261306524276
  1

 41
0.9200000000000001
  7
ARIAL
 72
     2
 11
-8.759469389915466
 21
-18.57007577491526
 31
0.0
100
AcDbAttributeDefinition
  3

  2
$POS_REFCRO_1
 70
     0
 74
     2
  0
ATTDEF
  5
25D
330
254
100
AcDbEntity
  8
A
  6
FIN
 62
     1
100
AcDbText
 10
0.0
 20
-3.153407643780611
 30
0.0
 40
1.512885498915399
  1

 41
0.9200000000000001
  7
ARIAL
 72
     4
 11
0.0
 21
-3.153407643780611
 31
0.0
100
AcDbAttributeDefinition
  3

  2
$PL:1
 70
     0
 74
     2
  0
ATTDEF
  5
25E
330
254
100
AcDbEntity
  8
A
  6
FIN
 62
     1
100
AcDbText
 10
7.007575511932372
 20
-3.153407643780611
 30
0.0
 40
1.512885498915399
  1

 41
0.9200000000000001
  7
ARIAL
 72
     4
 11
7.007575511932372
 21
-3.153407643780611
 31
0.0
100
AcDbAttributeDefinition
  3

  2
$PL:2
 70
     0
 74
     2
  0
ATTDEF
  5
25F
330
254
100
AcDbEntity
  8
A
  6
FIN
 62
     1
100
AcDbText
 10
28.03030204772948
 20
-3.153407643780611
 30
0.0
 40
1.512885498915399
  1

 41
0.9200000000000001
  7
ARIAL
 72
     4
 11
28.03030204772948
 21
-3.153407643780611
 31
0.0
100
AcDbAttributeDefinition
  3

  2
$PL:3
 70
     0
 74
     2
  0
ATTDEF
  5
260
330
254
100
AcDbEntity
  8
A
  6
FIN
 62
     1
100
AcDbText
 10
35.03787755966187
 20
-3.153409105674783
 30
0.0
 40
1.512885498915399
  1

 41
0.9200000000000001
  7
ARIAL
 72
     4
 11
35.03787755966187
 21
-3.153409105674783
 31
0.0
100
AcDbAttributeDefinition
  3

  2
$PL:4
 70
     0
 74
     2
  0
ATTDEF
  5
261
330
254
100
AcDbEntity
  8
A
  6
FIN
 62
     1
100
AcDbText
 10
42.04545307159424
 20
-3.153407643780611
 30
0.0
 40
1.512885498915399
  1

 41
0.9200000000000001
  7
ARIAL
 72
     4
 11
42.04545307159424
 21
-3.153407643780611
 31
0.0
100
AcDbAttributeDefinition
  3

  2
$PL:5
 70
     0
 74
     2
  0
ATTDEF
  5
262
330
254
100
AcDbEntity
  8
A
  6
FIN
 62
     1
100
AcDbText
 10
49.05302858352661
 20
-3.153407643780611
 30
0.0
 40
1.512885498915399
  1

 41
0.9200000000000001
  7
ARIAL
 72
     4
 11
49.05302858352661
 21
-3.153407643780611
 31
0.0
100
AcDbAttributeDefinition
  3

  2
$PL:6
 70
     0
 74
     2
  0
ATTDEF
  5
263
330
254
100
AcDbEntity
  8
A
  6
FIN
 62
     1
100
AcDbText
 10
0.0
 20
-24.52651429176331
 30
0.0
 40
1.512885498915399
  1

 41
0.9200000000000001
  7
ARIAL
 72
     4
 11
0.0
 21
-24.52651429176331
 31
0.0
100
AcDbAttributeDefinition
  3

  2
$PL:7
 70
     0
 74
     2
  0
ATTDEF
  5
264
330
254
100
AcDbEntity
  8
A
  6
FIN
 62
     1
100
AcDbText
 10
7.007575511932372
 20
-24.52651429176331
 30
0.0
 40
1.512885498915399
  1

 41
0.9200000000000001
  7
ARIAL
 72
     4
 11
7.007575511932372
 21
-24.52651429176331
 31
0.0
100
AcDbAttributeDefinition
  3

  2
$PL:8
 70
     0
 74
     2
  0
ATTDEF
  5
265
330
254
100
AcDbEntity
  8
A
  6
FIN
 62
     1
100
AcDbText
 10
14.01515102386475
 20
-24.52651429176331
 30
0.0
 40
1.512885498915399
  1

 41
0.9200000000000001
  7
ARIAL
 72
     4
 11
14.01515102386475
 21
-24.52651429176331
 31
0.0
100
AcDbAttributeDefinition
  3

  2
$PL:9
 70
     0
 74
     2
  0
ATTDEF
  5
266
330
254
100
AcDbEntity
  8
A
  6
FIN
 62
     1
100
AcDbText
 10
21.02272653579712
 20
-24.52651429176331
 30
0.0
 40
1.512885498915399
  1

 41
0.9200000000000001
  7
ARIAL
 72
     4
 11
21.02272653579712
 21
-24.52651429176331
 31
0.0
100
AcDbAttributeDefinition
  3

  2
$PL:10
 70
     0
 74
     2
  0
ATTDEF
  5
267
330
254
100
AcDbEntity
  8
A
  6
FIN
 62
     1
100
AcDbText
 10
28.03030204772948
 20
-24.52651429176331
 30
0.0
 40
1.512885498915399
  1

 41
0.9200000000000001
  7
ARIAL
 72
     4
 11
28.03030204772948
 21
-24.52651429176331
 31
0.0
100
AcDbAttributeDefinition
  3

  2
$PL:11
 70
     0
 74
     2
  0
ATTDEF
  5
268
330
254
100
AcDbEntity
  8
A
  6
FIN
 62
     1
100
AcDbText
 10
35.03787755966187
 20
-24.52651429176331
 30
0.0
 40
1.512885498915399
  1

 41
0.9200000000000001
  7
ARIAL
 72
     4
 11
35.03787755966187
 21
-24.52651429176331
 31
0.0
100
AcDbAttributeDefinition
  3

  2
$PL:12
 70
     0
 74
     2
  0
ATTDEF
  5
269
330
254
100
AcDbEntity
  8
A
  6
FIN
 62
     1
100
AcDbText
 10
42.04545307159424
 20
-24.52651429176331
 30
0.0
 40
1.512885498915399
  1

 41
0.9200000000000001
  7
ARIAL
 72
     4
 11
42.04545307159424
 21
-24.52651429176331
 31
0.0
100
AcDbAttributeDefinition
  3

  2
$PL:13
 70
     0
 74
     2
  0
ATTDEF
  5
26A
330
254
100
AcDbEntity
  8
A
  6
FIN
 62
     1
100
AcDbText
 10
49.05302858352661
 20
-24.52651429176331
 30
0.0
 40
1.512885498915399
  1

 41
0.9200000000000001
  7
ARIAL
 72
     4
 11
49.05302858352661
 21
-24.52651429176331
 31
0.0
100
AcDbAttributeDefinition
  3

  2
$PL:14
 70
     0
 74
     2
  0
ATTDEF
  5
26B
330
254
100
AcDbEntity
  8
A
  6
FIN
 62
     1
100
AcDbText
 10
17.51893877983093
 20
-7.007575511932372
 30
0.0
 40
1.512885498915399
  1

 41
0.9200000000000001
  7
ARIAL
 72
     4
 11
17.51893877983093
 21
-7.007575511932372
 31
0.0
100
AcDbAttributeDefinition
  3

  2
$PL:15
 70
     0
 74
     2
  0
LWPOLYLINE
  5
26C
330
254
100
AcDbEntity
  8
A
  6
FIN
 62
     7
100
AcDbPolyline
 90
        5
 70
     0
 43
0.0
 10
-7.007575511932372
 20
0.0
 10
56.06060409545897
 20
0.0
 10
56.06060409545897
 20
-28.03030204772948
 10
-7.007575511932372
 20
-28.03030204772948
 10
-7.007575511932372
 20
0.0
  0
CIRCLE
  5
273
330
254
100
AcDbEntity
  8
A
  6
SYMBOL_C
 62
     4
100
AcDbCircle
 10
0.0
 20
-0.7007568828987587
 30
0.0
 40
0.7007602243711517
  0
CIRCLE
  5
274
330
254
100
AcDbEntity
  8
A
  6
SYMBOL_C
 62
     4
100
AcDbCircle
 10
7.007575511932372
 20
-0.7007568828987587
 30
0.0
 40
0.7007602243711517
  0
CIRCLE
  5
275
330
254
100
AcDbEntity
  8
A
  6
SYMBOL_P
 62
     3
100
AcDbCircle
 10
0.0
 20
-27.32954182335834
 30
0.0
 40
0.7007602243711517
  0
CIRCLE
  5
276
330
254
100
AcDbEntity
  8
A
  6
SYMBOL_P
 62
     3
100
AcDbCircle
 10
7.007575511932372
 20
-27.32954182335834
 30
0.0
 40
0.7007602243711517
  0
CIRCLE
  5
277
330
254
100
AcDbEntity
  8
A
  6
SYMBOL_P
 62
     3
100
AcDbCircle
 10
14.01515102386475
 20
-27.32954182335834
 30
0.0
 40
0.7007602243711517
  0
CIRCLE
  5
278
330
254
100
AcDbEntity
  8
A
  6
SYMBOL_P
 62
     3
100
AcDbCircle
 10
21.02272653579712
 20
-27.32954182335834
 30
0.0
 40
0.7007602243711517
  0
CIRCLE
  5
279
330
254
100
AcDbEntity
  8
A
  6
SYMBOL_P
 62
     3
100
AcDbCircle
 10
28.03030204772948
 20
-27.32954182335834
 30
0.0
 40
0.7007602243711517
  0
CIRCLE
  5
27A
330
254
100
AcDbEntity
  8
A
  6
SYMBOL_P
 62
     3
100
AcDbCircle
 10
35.03787755966187
 20
-27.32954182335834
 30
0.0
 40
0.7007602243711517
  0
LWPOLYLINE
  5
27B
330
254
100
AcDbEntity
  8
A
  6
FIN
 62
     7
100
AcDbPolyline
 90
        8
 70
     0
 43
0.0
 10
6.657197070482994
 20
-16.46780512621899
 10
6.657197070482994
 20
-17.51893877983093
 10
6.306818629033613
 20
-17.51893877983093
 10
7.007575511932372
 20
-18.21969900420207
 10
7.708332394831132
 20
-17.51893877983093
 10
7.357953953381753
 20
-17.51893877983093
 10
7.357953953381753
 20
-16.46780512621899
 10
6.657197070482994
 20
-16.46780512621899
  0
LWPOLYLINE
  5
285
330
254
100
AcDbEntity
  8
A
  6
FIN
 62
     7
100
AcDbPolyline
 90
        8
 70
     0
 43
0.0
 10
-0.3503801121855759
 20
-18.21969566272969
 10
-0.3503801121855759
 20
-17.16855866764536
 10
-0.7007568828987587
 20
-17.16855866764536
 10
0.0
 20
-16.46780178474659
 10
0.7007568828987587
 20
-17.16855866764536
 10
0.3503801121855759
 20
-17.16855866764536
 10
0.3503801121855759
 20
-18.21969566272969
 10
-0.3503801121855759
 20
-18.21969566272969
  0
LWPOLYLINE
  5
28F
330
254
100
AcDbEntity
  8
A
  6
FIN
 62
     7
100
AcDbPolyline
 90
        8
 70
     0
 43
0.0
 10
20.67234809434773
 20
-16.46780512621899
 10
20.67234809434773
 20
-17.51893877983093
 10
20.32196965289835
 20
-17.51893877983093
 10
21.02272653579712
 20
-18.21969900420207
 10
21.72348341869587
 20
-17.51893877983093
 10
21.37310497724649
 20
-17.51893877983093
 10
21.37310497724649
 20
-16.46780512621899
 10
20.67234809434773
 20
-16.46780512621899
  0
LWPOLYLINE
  5
299
330
254
100
AcDbEntity
  8
A
  6
FIN
 62
     7
100
AcDbPolyline
 90
        8
 70
     0
 43
0.0
 10
34.68749744747629
 20
-16.46780512621899
 10
34.68749744747629
 20
-17.51893877983093
 10
34.33712067676311
 20
-17.51893877983093
 10
35.03787755966187
 20
-18.21969900420207
 10
35.73863444256061
 20
-17.51893877983093
 10
35.38825767184744
 20
-17.51893877983093
 10
35.38825767184744
 20
-16.46780512621899
 10
34.68749744747629
 20
-16.46780512621899
  0
LWPOLYLINE
  5
2A3
330
254
100
AcDbEntity
  8
A
  6
FIN
 62
     7
100
AcDbPolyline
 90
        8
 70
     0
 43
0.0
 10
13.66477258241536
 20
-18.21969566272969
 10
13.66477258241536
 20
-17.16855866764536
 10
13.31439414096599
 20
-17.16855866764536
 10
14.01515102386475
 20
-16.46780178474659
 10
14.71590790676351
 20
-17.16855866764536
 10
14.36552946531413
 20
-17.16855866764536
 10
14.36552946531413
 20
-18.21969566272969
 10
13.66477258241536
 20
-18.21969566272969
  0
LWPOLYLINE
  5
2AD
330
254
100
AcDbEntity
  8
A
  6
FIN
 62
     7
100
AcDbPolyline
 90
        8
 70
     0
 43
0.0
 10
27.6799236062801
 20
-18.21969566272969
 10
27.6799236062801
 20
-17.16855866764536
 10
27.32954516483073
 20
-17.16855866764536
 10
28.03030204772948
 20
-16.46780178474659
 10
28.73105893062825
 20
-17.16855866764536
 10
28.38068215991507
 20
-17.16855866764536
 10
28.38068215991507
 20
-18.21969566272969
 10
27.6799236062801
 20
-18.21969566272969
  0
CIRCLE
  5
2B7
330
254
100
AcDbEntity
  8
A
  6
SYMBOL_P
 62
     3
100
AcDbCircle
 10
42.04545307159424
 20
-27.32954182335834
 30
0.0
 40
0.7007602243711517
  0
CIRCLE
  5
2B8
330
254
100
AcDbEntity
  8
A
  6
SYMBOL_P
 62
     3
100
AcDbCircle
 10
49.05302858352661
 20
-27.32954182335834
 30
0.0
 40
0.7007602243711517
  0
CIRCLE
  5
2B9
330
254
100
AcDbEntity
  8
A
  6
SYMBOL_C
 62
     4
100
AcDbCircle
 10
49.05302858352661
 20
-0.7007568828987587
 30
0.0
 40
0.7007602243711517
  0
CIRCLE
  5
2BA
330
254
100
AcDbEntity
  8
A
  6
SYMBOL_C
 62
     4
100
AcDbCircle
 10
42.04545307159424
 20
-0.7007568828987587
 30
0.0
 40
0.7007602243711517
  0
CIRCLE
  5
2BB
330
254
100
AcDbEntity
  8
A
  6
SYMBOL_C
 62
     4
100
AcDbCircle
 10
35.03787755966187
 20
-0.7007568828987587
 30
0.0
 40
0.7007602243711517
  0
CIRCLE
  5
2BC
330
254
100
AcDbEntity
  8
A
  6
SYMBOL_C
 62
     4
100
AcDbCircle
 10
28.03030204772948
 20
-0.7007568828987587
 30
0.0
 40
0.7007602243711517
  0
LWPOLYLINE
  5
2BD
330
254
100
AcDbEntity
  8
A
  6
MOYEN
 62
     4
100
AcDbPolyline
 90
        5
 70
     0
 43
0.0
 10
13.31439330559789
 20
-1.751893877983093
 10
21.37310497724649
 20
-1.751893877983093
 10
21.37310497724649
 20
-5.25568163394928
 10
13.31439330559789
 20
-5.25568163394928
 10
13.31439330559789
 20
-1.751893877983093
  0
LINE
  5
2C4
330
254
100
AcDbEntity
  8
A
  6
MOYEN
 62
     4
100
AcDbLine
 10
17.51893877983093
 20
-5.25568163394928
 30
0.0
 11
17.51893877983093
 21
-1.751893877983093
 31
0.0
  0
LWPOLYLINE
  5
2C5
330
254
100
AcDbEntity
  8
A
  6
FIN
 62
     7
100
AcDbPolyline
 90
        8
 70
     0
 43
0.0
 10
49.05302858352661
 20
-16.4678001140104
 10
49.05302858352661
 20
-17.51893376762233
 10
48.70265181281343
 20
-17.51893376762233
 10
49.40340869571219
 20
-18.2196939919935
 10
50.10416557861095
 20
-17.51893376762233
 10
49.75378880789776
 20
-17.51893376762233
 10
49.75378880789776
 20
-16.4678001140104
 10
49.05302858352661
 20
-16.4678001140104
  0
LWPOLYLINE
  5
2CF
330
254
100
AcDbEntity
  8
A
  6
FIN
 62
     7
100
AcDbPolyline
 90
        8
 70
     0
 43
0.0
 10
42.04545307159424
 20
-18.2196906505211
 10
42.04545307159424
 20
-17.16855365543676
 10
41.69507630088106
 20
-17.16855365543676
 10
42.39583318377981
 20
-16.46779677253801
 10
43.09659006667857
 20
-17.16855365543676
 10
42.74621329596539
 20
-17.16855365543676
 10
42.74621329596539
 20
-18.2196906505211
 10
42.04545307159424
 20
-18.2196906505211
  0
TEXT
  5
2D9
330
254
100
AcDbEntity
  8
A
  6
FIN
 62
     1
100
AcDbText
 10
33.51636909407334
 20
-11.28130374392703
 30
0.0
 40
1.512885498915399
  1
2x5-30VDC
 41
0.9200000000000001
  7
ARIAL
 72
     4
 11
38.54166698636424
 21
-10.52537698543076
 31
0.0
100
AcDbText
  0
TEXT
  5
2DA
330
254
100
AcDbEntity
  8
A
  6
FIN
 62
     1
100
AcDbText
 10
-0.1173133912091786
 20
-11.28130374392703
 30
0.0
 40
1.512885498915399
  1
230VAC
 41
0.9200000000000001
  7
ARIAL
 72
     4
 11
3.503787338282136
 21
-10.52537698543076
 31
0.0
100
AcDbText
  0
TEXT
  5
2DB
330
254
100
AcDbEntity
  8
A
  6
FIN
 62
     1
100
AcDbText
 10
-0.540696608664212
 20
-7.778031978922281
 30
0.0
 40
1.512885498915399
  1
L
 41
0.9200000000000001
  7
ARIAL
 72
     4
 11
0.0
 21
-7.021589229464581
 31
0.0
100
AcDbText
  0
TEXT
  5
2DC
330
254
100
AcDbEntity
  8
A
  6
FIN
 62
     1
100
AcDbText
 10
6.305476512848526
 20
-7.778031978922281
 30
0.0
 40
1.512885498915399
  1
N
 41
0.9200000000000001
  7
ARIAL
 72
     4
 11
7.007575094248324
 21
-7.021589229464581
 31
0.0
100
AcDbText
  0
TEXT
  5
2DD
330
254
100
AcDbEntity
  8
A
  6
FIN
 62
     1
100
AcDbText
 10
-1.621615114308119
 20
-21.79576421064633
 30
0.0
 40
1.512885498915399
  1
I L1
 41
0.9200000000000001
  7
ARIAL
 72
     4
 11
0.0
 21
-21.03674150638148
 31
0.0
100
AcDbText
  0
TEXT
  5
2DE
330
254
100
AcDbEntity
  8
A
  6
FIN
 62
     1
100
AcDbText
 10
5.385959979940205
 20
-21.79576421064633
 30
0.0
 40
1.512885498915399
  1
I L1
 41
0.9200000000000001
  7
ARIAL
 72
     4
 11
7.007575094248324
 21
-21.03674150638148
 31
0.0
100
AcDbText
  0
TEXT
  5
2DF
330
254
100
AcDbEntity
  8
A
  6
FIN
 62
     1
100
AcDbText
 10
12.39353549187258
 20
-21.79576421064633
 30
0.0
 40
1.512885498915399
  1
I L2
 41
0.9200000000000001
  7
ARIAL
 72
     4
 11
14.01515060618069
 21
-21.03674150638148
 31
0.0
100
AcDbText
  0
TEXT
  5
2E0
330
254
100
AcDbEntity
  8
A
  6
FIN
 62
     1
100
AcDbText
 10
19.401111421489
 20
-21.79576421064633
 30
0.0
 40
1.512885498915399
  1
I L2
 41
0.9200000000000001
  7
ARIAL
 72
     4
 11
21.02272653579712
 21
-21.03674150638148
 31
0.0
100
AcDbText
  0
TEXT
  5
2E1
330
254
100
AcDbEntity
  8
A
  6
FIN
 62
     1
100
AcDbText
 10
26.40868693342136
 20
-21.78286443661056
 30
0.0
 40
1.512885498915399
  1
I L3
 41
0.9200000000000001
  7
ARIAL
 72
     4
 11
28.03030204772948
 21
-21.03674150638148
 31
0.0
100
AcDbText
  0
TEXT
  5
2E2
330
254
100
AcDbEntity
  8
A
  6
FIN
 62
     1
100
AcDbText
 10
33.41626244535375
 20
-21.78286443661056
 30
0.0
 40
1.512885498915399
  1
I L3
 41
0.9200000000000001
  7
ARIAL
 72
     4
 11
35.03787755966187
 21
-21.03674150638148
 31
0.0
100
AcDbText
  0
TEXT
  5
2E3
330
254
100
AcDbEntity
  8
A
  6
FIN
 62
     1
100
AcDbText
 10
48.48527340884496
 20
-7.521584471091123
 30
0.0
 40
1.512885498915399
  1
+
 41
0.9200000000000001
  7
ARIAL
 72
     4
 11
49.05302858352661
 21
-7.021589229464581
 31
0.0
100
AcDbText
  0
TEXT
  5
2E4
330
254
100
AcDbEntity
  8
A
  6
FIN
 62
     1
100
AcDbText
 10
41.5066553096681
 20
-7.096407918872062
 30
0.0
 40
1.512885498915399
  1
–
 41
0.9200000000000001
  7
ARIAL
 72
     4
 11
42.04545307159424
 21
-7.021589229464581
 31
0.0
100
AcDbText
  0
TEXT
  5
2E5
330
254
100
AcDbEntity
  8
A
  6
FIN
 62
     1
100
AcDbText
 10
34.47012238498022
 20
-7.521584471091123
 30
0.0
 40
1.512885498915399
  1
+
 41
0.9200000000000001
  7
ARIAL
 72
     4
 11
35.03787755966187
 21
-7.021589229464581
 31
0.0
100
AcDbText
  0
TEXT
  5
2E6
330
254
100
AcDbEntity
  8
A
  6
FIN
 62
     1
100
AcDbText
 10
27.49150428580334
 20
-7.096407918872062
 30
0.0
 40
1.512885498915399
  1
–
 41
0.9200000000000001
  7
ARIAL
 72
     4
 11
28.03030204772948
 21
-7.021589229464581
 31
0.0
100
AcDbText
  0
TEXT
  5
2E7
330
254
100
AcDbEntity
  8
A
  6
FIN
 62
     1
100
AcDbText
 10
41.34335616093063
 20
-21.79318425583918
 30
0.0
 40
1.512885498915399
  1
N
 41
0.9200000000000001
  7
ARIAL
 72
     4
 11
42.04545474233043
 21
-21.03674150638148
 31
0.0
100
AcDbText
  0
TEXT
  5
2E8
330
254
100
AcDbEntity
  8
A
  6
FIN
 62
     1
100
AcDbText
 10
48.35093167286301
 20
-21.79318425583918
 30
0.0
 40
1.512885498915399
  1
N
 41
0.9200000000000001
  7
ARIAL
 72
     4
 11
49.05303025426281
 21
-21.03674150638148
 31
0.0
100
AcDbText
  0
TEXT
  5
2E9
330
254
100
AcDbEntity
  8
A
  6
FIN
 62
     1
100
AcDbText
 10
13.57455939318392
 20
-11.61981606399969
 30
0.0
 40
1.512885498915399
  1
Bus KNX
 41
0.9200000000000001
  7
ARIAL
 72
     4
 11
17.51893877983093
 21
-10.87575709761633
 31
0.0
100
AcDbText
  0
TEXT
  5
2EA
330
254
100
AcDbEntity
  8
A
  6
FIN
 62
     1
100
AcDbText
 10
14.54220631924294
 20
-4.301685296024942
 30
0.0
 40
1.396509691306523
  1
+
 41
0.9200000000000001
  7
ARIAL
 72
     4
 11
15.06628801894907
 21
-3.84015122683121
 31
0.0
100
AcDbText
  0
TEXT
  5
2EB
330
254
100
AcDbEntity
  8
A
  6
FIN
 62
     1
100
AcDbText
 10
19.08241333733726
 20
-3.943000170670438
 30
0.0
 40
1.512885498915399
  1
–
 41
0.9200000000000001
  7
ARIAL
 72
     4
 11
19.62121109926341
 21
-3.868181481262958
 31
0.0
100
AcDbText
  0
ENDBLK
  5
2ED
330
254
100
AcDbEntity
  8
0
100
AcDbBlockEnd
  0
BLOCK
  5
320
330
30F
100
AcDbEntity
  8
0
100
AcDbBlockBegin
  2
X15C0_X01_0_3_1
 70
     2
 10
0.0
 20
0.0
 30
0.0
  3
X15C0_X01_0_3_1
  1

  0
ATTDEF
  5
310
330
30F
100
AcDbEntity
  8
A
  6
FIN
 62
     3
100
AcDbText
 10
1.401515123270677
 20
1.52164492653691
 30
0.0
 40
1.86201292174203
  1

 41
0.9200000000000001
  7
ARIAL
 11
1.401515123270677
 21
2.452651387407925
 31
0.0
100
AcDbAttributeDefinition
  3

  2
$BORNE
 70
     0
 74
     2
  0
ATTDEF
  5
311
330
30F
100
AcDbEntity
  8
A
  6
FIN
 62
     3
100
AcDbText
 10
-1.401515123270677
 20
1.52164492653691
 30
0.0
 40
1.86201292174203
  1

 41
0.9200000000000001
  7
ARIAL
 72
     2
 11
-1.401515123270677
 21
2.452651387407925
 31
0.0
100
AcDbAttributeDefinition
  3

  2
$NOMCOMP
 70
     0
 74
     2
  0
ATTDEF
  5
312
330
30F
100
AcDbEntity
  8
A
  6
FIN
 62
     1
100
AcDbText
 10
1.401515123270677
 20
-2.566524531245231
 30
0.0
 40
1.629261306524276
  1

 41
0.9200000000000001
  7
ARIAL
 11
1.401515123270677
 21
-1.751893877983093
 31
0.0
100
AcDbAttributeDefinition
  3

  2
$CABABOU
 70
     0
 74
     2
  0
ATTDEF
  5
313
330
30F
100
AcDbEntity
  8
A
  6
FIN
 62
     1
100
AcDbText
 10
1.401515123270677
 20
-4.843986489086443
 30
0.0
 40
1.629261306524276
  1

 41
0.9200000000000001
  7
ARIAL
 11
1.401515123270677
 21
-4.029355835824305
 31
0.0
100
AcDbAttributeDefinition
  3

  2
$BRIN_ABOUTISSANT
 70
     0
 74
     2
  0
ATTDEF
  5
314
330
30F
100
AcDbEntity
  8
A
  6
FIN
 62
     1
100
AcDbText
 10
1.401515123270677
 20
-7.121448864611704
 30
0.0
 40
1.629261306524276
  1

 41
0.9200000000000001
  7
ARIAL
 11
1.401515123270677
 21
-6.306818211349566
 31
0.0
100
AcDbAttributeDefinition
  3

  2
$CODCABA
 70
     0
 74
     2
  0
ATTDEF
  5
315
330
30F
100
AcDbEntity
  8
A
  6
FIN
 62
     3
100
AcDbText
 10
-1.401515123270677
 20
4.441050980687142
 30
0.0
 40
1.629261306524276
  1

 41
0.9200000000000001
  7
ARIAL
 72
     2
 11
-1.401515123270677
 21
5.25568163394928
 31
0.0
100
AcDbAttributeDefinition
  3

  2
$LOCALISATION
 70
     0
 74
     2
  0
ATTDEF
  5
316
330
30F
100
AcDbEntity
  8
A
  6
FIN
 62
     3
100
AcDbText
 10
-1.401515123270677
 20
6.893702576937092
 30
0.0
 40
1.629261306524276
  1

 41
0.9200000000000001
  7
ARIAL
 72
     2
 11
-1.401515123270677
 21
7.70833323019923
 31
0.0
100
AcDbAttributeDefinition
  3

  2
$FONCTION
 70
     0
 74
     2
  0
LINE
  5
317
330
30F
100
AcDbEntity
  8
A
  6
MOYEN
 62
     4
100
AcDbLine
 10
0.0
 20
3.503787755966186
 30
0.0
 11
0.0
 21
1.05113636855826
 31
0.0
  0
LINE
  5
318
330
30F
100
AcDbEntity
  8
A
  6
MOYEN
 62
     4
100
AcDbLine
 10
0.0
 20
-1.05113636855826
 30
0.0
 11
0.0
 21
-3.503787755966186
 31
0.0
  0
LWPOLYLINE
  5
319
330
30F
100
AcDbEntity
  8
A
  6
MOYEN
 62
     4
100
AcDbPolyline
 90
        5
 70
     0
 43
0.0
 10
-1.05113636855826
 20
1.051136264137249
 10
-1.05113636855826
 20
-1.051136264137249
 10
1.05113636855826
 20
-1.051136264137249
 10
1.05113636855826
 20
1.051136264137249
 10
-1.05113636855826
 20
1.051136264137249
  0
ENDBLK
  5
321
330
30F
100
AcDbEntity
  8
0
100
AcDbBlockEnd
  0
BLOCK
  5
35E
330
343
100
AcDbEntity
  8
0
100
AcDbBlockBegin
  2
XC2P2_X07_0_3_1
 70
     2
 10
0.0
 20
0.0
 30
0.0
  3
XC2P2_X07_0_3_1
  1

  0
ATTDEF
  5
344
330
343
100
AcDbEntity
  8
A
  6
FIN
 62
     3
100
AcDbText
 10
-5.25568163394928
 20
-5.952685043295742
 30
0.0
 40
2.094764536959783
  1

 41
0.9200000000000001
  7
ARIAL
 72
     2
 11
-5.25568163394928
 21
-4.905302774815851
 31
0.0
100
AcDbAttributeDefinition
  3

  2
$NOMCOMP
 70
     0
 74
     2
  0
ATTDEF
  5
345
330
343
100
AcDbEntity
  8
A
  6
FIN
 62
     4
100
AcDbText
 10
-5.25568163394928
 20
-8.698153104186058
 30
0.0
 40
1.629261306524276
  1

 41
0.9200000000000001
  7
ARIAL
 72
     2
 11
-5.25568163394928
 21
-7.883522450923919
 31
0.0
100
AcDbAttributeDefinition
  3

  2
TENSION/COURANT
 70
     0
 74
     2
  0
ATTDEF
  5
346
330
343
100
AcDbEntity
  8
A
  6
FIN
 62
     4
100
AcDbText
 10
-5.25568163394928
 20
-11.32599392116069
 30
0.0
 40
1.629261306524276
  1

 41
0.9200000000000001
  7
ARIAL
 72
     2
 11
-5.25568163394928
 21
-10.51136326789856
 31
0.0
100
AcDbAttributeDefinition
  3

  2
TYPE
 70
     0
 74
     2
  0
ATTDEF
  5
347
330
343
100
AcDbEntity
  8
A
  6
FIN
 62
     3
100
AcDbText
 10
-5.25568163394928
 20
-2.682900338854108
 30
0.0
 40
1.86201292174203
  1

 41
0.9200000000000001
  7
ARIAL
 72
     2
 11
-5.25568163394928
 21
-1.751893877983093
 31
0.0
100
AcDbAttributeDefinition
  3

  2
$LOCALISATION
 70
     0
 74
     2
  0
ATTDEF
  5
348
330
343
100
AcDbEntity
  8
A
  6
FIN
 62
     3
100
AcDbText
 10
-5.25568163394928
 20
0.2953192328329473
 30
0.0
 40
1.86201292174203
  1

 41
0.9200000000000001
  7
ARIAL
 72
     2
 11
-5.25568163394928
 21
1.226325693703962
 31
0.0
100
AcDbAttributeDefinition
  3

  2
$FONCTION
 70
     0
 74
     2
  0
ATTDEF
  5
349
330
343
100
AcDbEntity
  8
A
  6
FIN
 62
     1
100
AcDbText
 10
-6.657202082691582
 20
-12.90268771863382
 30
0.0
 40
1.629261306524276
  1

 41
0.9200000000000001
  7
ARIAL
 72
     2
 11
-6.657202082691582
 21
-12.08805706537169
 31
0.0
100
AcDbAttributeDefinition
  3

  2
$POS_REFCRO_1
 70
     0
 74
     2
  0
ATTDEF
  5
34A
330
343
100
AcDbEntity
  8
A
  6
FIN
 62
     4
100
AcDbText
 10
-7.357948941173162
 20
-14.54069780183635
 30
0.0
 40
1.629261306524276
  1

 41
0.9200000000000001
  7
ARIAL
 72
     4
 11
-7.357948941173162
 21
-14.54069780183635
 31
0.0
100
AcDbAttributeDefinition
  3

  2
$INTER_CROREF_1
 70
     0
 74
     2
  0
CIRCLE
  5
34B
330
343
100
AcDbEntity
  8
A
  6
MOYEN
 62
     4
100
AcDbCircle
 10
0.0
 20
-7.007575511932372
 30
0.0
 40
0.8759469389915466
  0
CIRCLE
  5
34C
330
343
100
AcDbEntity
  8
A
  6
MOYEN
 62
     4
100
AcDbCircle
 10
7.007575511932372
 20
-7.007575511932372
 30
0.0
 40
0.8759469389915466
  0
LINE
  5
34D
330
343
100
AcDbEntity
  8
A
  6
MOYEN
 62
     4
100
AcDbLine
 10
0.0
 20
-6.131628572940826
 30
0.0
 11
0.0
 21
0.0
 31
0.0
  0
LINE
  5
34E
330
343
100
AcDbEntity
  8
A
  6
MOYEN
 62
     4
100
AcDbLine
 10
7.029986767272249
 20
-6.158896658403932
 30
0.0
 11
7.007575511932372
 21
0.0
 31
0.0
  0
LINE
  5
34F
330
343
100
AcDbEntity
  8
A
  6
MOYEN
 62
     4
100
AcDbLine
 10
3.503787755966186
 20
-9.635416328907011
 30
0.0
 11
3.503787755966186
 21
-7.533144009474539
 31
0.0
  0
LINE
  5
350
330
343
100
AcDbEntity
  8
A
  6
MOYEN
 62
     4
100
AcDbLine
 10
2.102272319432473
 20
-7.533144009474539
 30
0.0
 11
4.9053031924999
 21
-7.533144009474539
 31
0.0
  0
LINE
  5
351
330
343
100
AcDbEntity
  8
A
  6
MOYEN
 62
     4
100
AcDbLine
 10
2.66287782575148
 20
-6.972537667787435
 30
0.0
 11
4.344697686180893
 21
-6.972537667787435
 31
0.0
  0
LINE
  5
352
330
343
100
AcDbEntity
  8
A
  6
MOYEN
 62
     4
100
AcDbLine
 10
3.223485002806683
 20
-6.41193132610033
 30
0.0
 11
3.78409050912569
 21
-6.41193132610033
 31
0.0
  0
CIRCLE
  5
353
330
343
100
AcDbEntity
  8
A
  6
MOYEN
 62
     4
100
AcDbCircle
 10
3.503787755966186
 20
-10.51136326789856
 30
0.0
 40
0.8759469389915466
  0
CIRCLE
  5
354
330
343
100
AcDbEntity
  8
A
  6
SYMBOL_C
 62
     4
100
AcDbCircle
 10
3.503787755966186
 20
-7.007575511932372
 30
0.0
 40
5.606060493082708
  0
LINE
  5
355
330
343
100
AcDbEntity
  8
A
  6
MOYEN
 62
     4
100
AcDbLine
 10
3.628067974047268
 20
-11.37805349299339
 30
0.0
 11
4.370959153085606
 21
-10.63516147858694
 31
0.0
  0
LINE
  5
356
330
343
100
AcDbEntity
  8
A
  6
MOYEN
 62
     4
100
AcDbLine
 10
4.370904854159221
 20
-10.38746063619788
 30
0.0
 11
3.380234934656656
 21
-11.37813118222652
 31
0.0
  0
LINE
  5
357
330
343
100
AcDbEntity
  8
A
  6
MOYEN
 62
     4
100
AcDbLine
 10
3.184247554389812
 20
-11.32636258580981
 30
0.0
 11
4.318857662481747
 21
-10.19175226887585
 31
0.0
  0
LINE
  5
358
330
343
100
AcDbEntity
  8
A
  6
MOYEN
 62
     4
100
AcDbLine
 10
4.234206889297638
 20
-10.02864831842857
 30
0.0
 11
3.021155299095895
 21
-11.24169969978828
 31
0.0
  0
LINE
  5
359
330
343
100
AcDbEntity
  8
A
  6
MOYEN
 62
     4
100
AcDbLine
 10
2.884737600231276
 20
-11.1303626750215
 30
0.0
 11
4.122980550803873
 21
-9.892119097922829
 31
0.0
  0
LINE
  5
35A
330
343
100
AcDbEntity
  8
A
  6
MOYEN
 62
     4
100
AcDbLine
 10
3.986788401325782
 20
-9.780556523769519
 30
0.0
 11
2.773295736768162
 21
-10.99404897948511
 31
0.0
  0
LINE
  5
35B
330
343
100
AcDbEntity
  8
A
  6
MOYEN
 62
     4
100
AcDbLine
 10
2.688618022962884
 20
-10.83097176081696
 30
0.0
 11
3.82375503948279
 21
-9.695835161981106
 31
0.0
  0
LINE
  5
35C
330
343
100
AcDbEntity
  8
A
  6
MOYEN
 62
     4
100
AcDbLine
 10
3.627261843832457
 20
-9.644571963263844
 30
0.0
 11
2.637121130020134
 21
-10.63471288591818
 31
0.0
  0
LINE
  5
35D
330
343
100
AcDbEntity
  8
A
  6
MOYEN
 62
     4
100
AcDbLine
 10
2.637296557320766
 20
-10.3867823173021
 30
0.0
 11
3.379341508475576
 21
-9.644737366147296
 31
0.0
  0
ENDBLK
  5
35F
330
343
100
AcDbEntity
  8
0
100
AcDbBlockEnd
  0
BLOCK
  5
382
330
363
100
AcDbEntity
  8
0
100
AcDbBlockBegin
  2
Q48P2N_Q03_0_3_1
 70
     2
 10
0.0
 20
0.0
 30
0.0
  3
Q48P2N_Q03_0_3_1
  1

  0
ATTDEF
  5
364
330
363
100
AcDbEntity
  8
A
  6
FIN
 62
     3
100
AcDbText
 10
-5.25568163394928
 20
-4.200791374154674
 30
0.0
 40
2.094764536959783
  1

 41
0.9200000000000001
  7
ARIAL
 72
     2
 11
-5.25568163394928
 21
-3.153409105674783
 31
0.0
100
AcDbAttributeDefinition
  3

  2
$NOMCOMP
 70
     0
 74
     2
  0
ATTDEF
  5
365
330
363
100
AcDbEntity
  8
A
  6
FIN
 62
     4
100
AcDbText
 10
-5.25568163394928
 20
-12.20194086015224
 30
0.0
 40
1.629261306524276
  1

 41
0.9200000000000001
  7
ARIAL
 72
     2
 11
-5.25568163394928
 21
-11.3873102068901
 31
0.0
100
AcDbAttributeDefinition
  3

  2
TYPE DU FUSIBLE
 70
     0
 74
     2
  0
ATTDEF
  5
366
330
363
100
AcDbEntity
  8
A
  6
FIN
 62
     1
100
AcDbText
 10
-7.007575511932372
 20
-6.946259226202965
 30
0.0
 40
1.629261306524276
  1

 41
0.9200000000000001
  7
ARIAL
 72
     2
 11
-7.007575511932372
 21
-6.131628572940826
 31
0.0
100
AcDbAttributeDefinition
  3

  2
ITH
 70
     0
 74
     2
  0
ATTDEF
  5
367
330
363
100
AcDbEntity
  8
A
  6
FIN
 62
     1
100
AcDbText
 10
-5.25568163394928
 20
-9.574100043177605
 30
0.0
 40
1.629261306524276
  1

 41
0.9200000000000001
  7
ARIAL
 72
     2
 11
-5.25568163394928
 21
-8.759469389915466
 31
0.0
100
AcDbAttributeDefinition
  3

  2
FULST
 70
     0
 74
     2
  0
ATTDEF
  5
368
330
363
100
AcDbEntity
  8
A
  6
FIN
 62
     1
100
AcDbText
 10
0.8759469389915466
 20
0.2946936191005609
 30
0.0
 40
1.512885498915399
  1

 41
0.9200000000000001
  7
ARIAL
 11
0.8759469389915466
 21
1.05113636855826
 31
0.0
100
AcDbAttributeDefinition
  3

  2
$PL:1
 70
     0
 74
     2
  0
ATTDEF
  5
369
330
363
100
AcDbEntity
  8
A
  6
FIN
 62
     1
100
AcDbText
 10
7.883522450923919
 20
0.2946936191005609
 30
0.0
 40
1.512885498915399
  1

 41
0.9200000000000001
  7
ARIAL
 11
7.883522450923919
 21
1.05113636855826
 31
0.0
100
AcDbAttributeDefinition
  3

  2
$PL:3
 70
     0
 74
     2
  0
ATTDEF
  5
36A
330
363
100
AcDbEntity
  8
A
  6
FIN
 62
     1
100
AcDbText
 10
0.8759469389915466
 20
-8.289586758932239
 30
0.0
 40
1.512885498915399
  1

 41
0.9200000000000001
  7
ARIAL
 11
0.8759469389915466
 21
-7.533144009474539
 31
0.0
100
AcDbAttributeDefinition
  3

  2
$PL:2
 70
     0
 74
     2
  0
ATTDEF
  5
36B
330
363
100
AcDbEntity
  8
A
  6
FIN
 62
     1
100
AcDbText
 10
7.883522450923919
 20
-8.289586758932239
 30
0.0
 40
1.512885498915399
  1

 41
0.9200000000000001
  7
ARIAL
 11
7.883522450923919
 21
-7.533144009474539
 31
0.0
100
AcDbAttributeDefinition
  3

  2
$PL:4
 70
     0
 74
     2
  0
ATTDEF
  5
36C
330
363
100
AcDbEntity
  8
A
  6
FIN
 62
     3
100
AcDbText
 10
-5.25568163394928
 20
1.696834356103624
 30
0.0
 40
1.86201292174203
  1

 41
0.9200000000000001
  7
ARIAL
 72
     2
 11
-5.25568163394928
 21
2.62784081697464
 31
0.0
100
AcDbAttributeDefinition
  3

  2
$FONCTION
 70
     0
 74
     2
  0
ATTDEF
  5
36D
330
363
100
AcDbEntity
  8
A
  6
FIN
 62
     3
100
AcDbText
 10
-5.25568163394928
 20
-0.9310064608710154
 30
0.0
 40
1.86201292174203
  1

 41
0.9200000000000001
  7
ARIAL
 72
     2
 11
-5.25568163394928
 21
0.0
 31
0.0
100
AcDbAttributeDefinition
  3

  2
$LOCALISATION
 70
     0
 74
     2
  0
ATTDEF
  5
36E
330
363
100
AcDbEntity
  8
A
  6
FIN
 62
     4
100
AcDbText
 10
-5.25568163394928
 20
-6.946259226202965
 30
0.0
 40
1.629261306524276
  1

 41
0.9200000000000001
  7
ARIAL
 72
     2
 11
-5.25568163394928
 21
-6.131628572940826
 31
0.0
100
AcDbAttributeDefinition
  3

  2
UNITE_IT
 70
     0
 74
     2
  0
ATTDEF
  5
36F
330
363
100
AcDbEntity
  8
A
  6
FIN
 62
     1
100
AcDbText
 10
8.759469389915466
 20
-9.574100043177605
 30
0.0
 40
1.629261306524276
  1

 41
0.9200000000000001
  7
ARIAL
 11
8.759469389915466
 21
-8.759469389915466
 31
0.0
100
AcDbAttributeDefinition
  3

  2
NBPOLE
 70
     0
 74
     2
  0
ATTDEF
  5
370
330
363
100
AcDbEntity
  8
A
  6
FIN
 62
     1
100
AcDbText
 10
-6.306801921671648
 20
-14.82978167712689
 30
0.0
 40
1.629261306524276
  1

 41
0.9200000000000001
  7
ARIAL
 72
     2
 11
-6.306801921671648
 21
-14.01515102386475
 31
0.0
100
AcDbAttributeDefinition
  3

  2
$POS_REFCRO_1
 70
     0
 74
     2
  0
ATTDEF
  5
371
330
363
100
AcDbEntity
  8
A
  6
FIN
 62
     4
100
AcDbText
 10
-7.357948941173162
 20
-16.64299184083938
 30
0.0
 40
1.629261306524276
  1

 41
0.9200000000000001
  7
ARIAL
 72
     4
 11
-7.357948941173162
 21
-16.64299184083938
 31
0.0
100
AcDbAttributeDefinition
  3

  2
$INTER_CROREF_1
 70
     0
 74
     2
  0
LINE
  5
372
330
363
100
AcDbEntity
  8
A
  6
POINT
 62
     3
100
AcDbLine
 10
-1.751893877983093
 20
-3.503787755966186
 30
0.0
 11
5.25568163394928
 21
-3.503787755966186
 31
0.0
  0
LINE
  5
373
330
363
100
AcDbEntity
  8
A
  6
MOYEN
 62
     4
100
AcDbLine
 10
-0.8759469389915466
 20
0.0
 30
0.0
 11
0.8759469389915466
 21
0.0
 31
0.0
  0
LINE
  5
374
330
363
100
AcDbEntity
  8
A
  6
SYMBOL_P
 62
     3
100
AcDbLine
 10
-3.503787755966186
 20
0.0
 30
0.0
 11
0.0
 21
-7.007575511932372
 31
0.0
  0
LINE
  5
375
330
363
100
AcDbEntity
  8
A
  6
MOYEN
 62
     4
100
AcDbLine
 10
-3.738833607034849
 20
-1.880329216984876
 30
0.0
 11
-1.858501883945678
 21
-0.9401687853329292
 31
0.0
  0
LINE
  5
376
330
363
100
AcDbEntity
  8
A
  6
MOYEN
 62
     4
100
AcDbLine
 10
0.3352060683648972
 20
-5.327610586365125
 30
0.0
 11
-1.545126072408323
 21
-6.267771018017072
 31
0.0
  0
LINE
  5
377
330
363
100
AcDbEntity
  8
A
  6
MOYEN
 62
     4
100
AcDbLine
 10
6.131628572940826
 20
0.0
 30
0.0
 11
7.883522450923919
 21
0.0
 31
0.0
  0
LWPOLYLINE
  5
378
330
363
100
AcDbEntity
  8
A
  6
MOYEN
 62
     4
100
AcDbPolyline
 90
        5
 70
     0
 43
0.0
 10
5.462449439524049
 20
-6.267771018017072
 10
3.268741904897523
 20
-1.880329216984876
 10
5.149073627986695
 20
-0.9401687853329292
 10
7.342781997981318
 20
-5.327610586365125
 10
5.462449439524049
 20
-6.267771018017072
  0
LINE
  5
37F
330
363
100
AcDbEntity
  8
A
  6
SYMBOL_P
 62
     3
100
AcDbLine
 10
3.503787755966186
 20
0.0
 30
0.0
 11
7.007575511932372
 21
-7.007575511932372
 31
0.0
  0
CIRCLE
  5
380
330
363
100
AcDbEntity
  8
A
  6
MOYEN
 62
     4
100
AcDbCircle
 10
0.0
 20
-0.5255681842791305
 30
0.0
 40
0.5255681842791305
  0
CIRCLE
  5
381
330
363
100
AcDbEntity
  8
A
  6
MOYEN
 62
     4
100
AcDbCircle
 10
7.007575511932372
 20
-0.5255681842791305
 30
0.0
 40
0.5255681842791305
  0
ENDBLK
  5
383
330
363
100
AcDbEntity
  8
0
100
AcDbBlockEnd
  0
BLOCK
  5
3B6
330
398
100
AcDbEntity
  8
0
100
AcDbBlockBegin
  2
Q85P2N_Q05_0_3_1
 70
     2
 10
0.0
 20
0.0
 30
0.0
  3
Q85P2N_Q05_0_3_1
  1

  0
ATTDEF
  5
399
330
398
100
AcDbEntity
  8
A
  6
FIN
 62
     3
100
AcDbText
 10
-5.25568163394928
 20
-4.200791374154674
 30
0.0
 40
2.094764536959783
  1

 41
0.9200000000000001
  7
ARIAL
 72
     2
 11
-5.25568163394928
 21
-3.153409105674783
 31
0.0
100
AcDbAttributeDefinition
  3

  2
$NOMCOMP
 70
     0
 74
     2
  0
ATTDEF
  5
39A
330
398
100
AcDbEntity
  8
A
  6
FIN
 62
     1
100
AcDbText
 10
-7.007575511932372
 20
-6.946259226202965
 30
0.0
 40
1.629261306524276
  1

 41
0.9200000000000001
  7
ARIAL
 72
     2
 11
-7.007575511932372
 21
-6.131628572940826
 31
0.0
100
AcDbAttributeDefinition
  3

  2
IN
 70
     0
 74
     2
  0
ATTDEF
  5
39B
330
398
100
AcDbEntity
  8
A
  6
FIN
 62
     1
100
AcDbText
 10
-5.25568163394928
 20
-9.574100043177605
 30
0.0
 40
1.629261306524276
  1

 41
0.9200000000000001
  7
ARIAL
 72
     2
 11
-5.25568163394928
 21
-8.759469389915466
 31
0.0
100
AcDbAttributeDefinition
  3

  2
FULST
 70
     0
 74
     2
  0
ATTDEF
  5
39C
330
398
100
AcDbEntity
  8
A
  6
FIN
 62
     4
100
AcDbText
 10
-5.25568163394928
 20
-12.20194086015224
 30
0.0
 40
1.629261306524276
  1

 41
0.9200000000000001
  7
ARIAL
 72
     2
 11
-5.25568163394928
 21
-11.3873102068901
 31
0.0
100
AcDbAttributeDefinition
  3

  2
TYPE DU FUSIBLE
 70
     0
 74
     2
  0
ATTDEF
  5
39D
330
398
100
AcDbEntity
  8
A
  6
FIN
 62
     1
100
AcDbText
 10
0.8759469389915466
 20
0.2946936191005609
 30
0.0
 40
1.512885498915399
  1

 41
0.9200000000000001
  7
ARIAL
 11
0.8759469389915466
 21
1.05113636855826
 31
0.0
100
AcDbAttributeDefinition
  3

  2
$PL:1
 70
     0
 74
     2
  0
ATTDEF
  5
39E
330
398
100
AcDbEntity
  8
A
  6
FIN
 62
     1
100
AcDbText
 10
0.8759469389915466
 20
-8.289586758932239
 30
0.0
 40
1.512885498915399
  1

 41
0.9200000000000001
  7
ARIAL
 11
0.8759469389915466
 21
-7.533144009474539
 31
0.0
100
AcDbAttributeDefinition
  3

  2
$PL:2
 70
     0
 74
     2
  0
ATTDEF
  5
39F
330
398
100
AcDbEntity
  8
A
  6
FIN
 62
     1
100
AcDbText
 10
7.883522450923919
 20
0.2946936191005609
 30
0.0
 40
1.512885498915399
  1

 41
0.9200000000000001
  7
ARIAL
 11
7.883522450923919
 21
1.05113636855826
 31
0.0
100
AcDbAttributeDefinition
  3

  2
$PL:3
 70
     0
 74
     2
  0
ATTDEF
  5
3A0
330
398
100
AcDbEntity
  8
A
  6
FIN
 62
     1
100
AcDbText
 10
7.883522450923919
 20
-8.289586758932239
 30
0.0
 40
1.512885498915399
  1

 41
0.9200000000000001
  7
ARIAL
 11
7.883522450923919
 21
-7.533144009474539
 31
0.0
100
AcDbAttributeDefinition
  3

  2
$PL:4
 70
     0
 74
     2
  0
ATTDEF
  5
3A1
330
398
100
AcDbEntity
  8
A
  6
FIN
 62
     3
100
AcDbText
 10
-5.25568163394928
 20
1.696834356103624
 30
0.0
 40
1.86201292174203
  1

 41
0.9200000000000001
  7
ARIAL
 72
     2
 11
-5.25568163394928
 21
2.62784081697464
 31
0.0
100
AcDbAttributeDefinition
  3

  2
$FONCTION
 70
     0
 74
     2
  0
ATTDEF
  5
3A2
330
398
100
AcDbEntity
  8
A
  6
FIN
 62
     3
100
AcDbText
 10
-5.25568163394928
 20
-0.9310064608710154
 30
0.0
 40
1.86201292174203
  1

 41
0.9200000000000001
  7
ARIAL
 72
     2
 11
-5.25568163394928
 21
0.0
 31
0.0
100
AcDbAttributeDefinition
  3

  2
$LOCALISATION
 70
     0
 74
     2
  0
ATTDEF
  5
3A3
330
398
100
AcDbEntity
  8
A
  6
FIN
 62
     4
100
AcDbText
 10
-5.25568163394928
 20
-6.946259226202965
 30
0.0
 40
1.629261306524276
  1

 41
0.9200000000000001
  7
ARIAL
 72
     2
 11
-5.25568163394928
 21
-6.131628572940826
 31
0.0
100
AcDbAttributeDefinition
  3

  2
UNITE_IN
 70
     0
 74
     2
  0
ATTDEF
  5
3A4
330
398
100
AcDbEntity
  8
A
  6
FIN
 62
     1
100
AcDbText
 10
8.759469389915466
 20
-9.574100043177605
 30
0.0
 40
1.629261306524276
  1

 41
0.9200000000000001
  7
ARIAL
 11
8.759469389915466
 21
-8.759469389915466
 31
0.0
100
AcDbAttributeDefinition
  3

  2
NBPOLE
 70
     0
 74
     2
  0
ATTDEF
  5
3A5
330
398
100
AcDbEntity
  8
A
  6
FIN
 62
     1
100
AcDbText
 10
-6.306801921671648
 20
-14.82978167712689
 30
0.0
 40
1.629261306524276
  1

 41
0.9200000000000001
  7
ARIAL
 72
     2
 11
-6.306801921671648
 21
-14.01515102386475
 31
0.0
100
AcDbAttributeDefinition
  3

  2
$POS_REFCRO_1
 70
     0
 74
     2
  0
ATTDEF
  5
3A6
330
398
100
AcDbEntity
  8
A
  6
FIN
 62
     4
100
AcDbText
 10
-7.357948941173162
 20
-16.64299184083938
 30
0.0
 40
1.629261306524276
  1

 41
0.9200000000000001
  7
ARIAL
 72
     4
 11
-7.357948941173162
 21
-16.64299184083938
 31
0.0
100
AcDbAttributeDefinition
  3

  2
$INTER_CROREF_1
 70
     0
 74
     2
  0
LINE
  5
3A7
330
398
100
AcDbEntity
  8
A
  6
POINT
 62
     3
100
AcDbLine
 10
-1.751893877983093
 20
-3.503787755966186
 30
0.0
 11
5.25568163394928
 21
-3.503787755966186
 31
0.0
  0
LINE
  5
3A8
330
398
100
AcDbEntity
  8
A
  6
MOYEN
 62
     4
100
AcDbLine
 10
-0.8759469389915466
 20
0.0
 30
0.0
 11
0.8759469389915466
 21
0.0
 31
0.0
  0
LINE
  5
3A9
330
398
100
AcDbEntity
  8
A
  6
SYMBOL_P
 62
     3
100
AcDbLine
 10
-3.503787755966186
 20
0.0
 30
0.0
 11
0.0
 21
-7.007575511932372
 31
0.0
  0
LINE
  5
3AA
330
398
100
AcDbEntity
  8
A
  6
MOYEN
 62
     4
100
AcDbLine
 10
-3.738833607034849
 20
-1.880329216984876
 30
0.0
 11
-1.858501883945678
 21
-0.9401687853329292
 31
0.0
  0
LINE
  5
3AB
330
398
100
AcDbEntity
  8
A
  6
MOYEN
 62
     4
100
AcDbLine
 10
0.3352060683648972
 20
-5.327610586365125
 30
0.0
 11
-1.545126072408323
 21
-6.267771018017072
 31
0.0
  0
LINE
  5
3AC
330
398
100
AcDbEntity
  8
A
  6
MOYEN
 62
     4
100
AcDbLine
 10
-0.8759469389915466
 20
0.0
 30
0.0
 11
0.8759469389915466
 21
0.0
 31
0.0
  0
LINE
  5
3AD
330
398
100
AcDbEntity
  8
A
  6
MOYEN
 62
     4
100
AcDbLine
 10
6.131628155256776
 20
0.0
 30
0.0
 11
7.883522450923919
 21
0.0
 31
0.0
  0
LWPOLYLINE
  5
3AE
330
398
100
AcDbEntity
  8
A
  6
MOYEN
 62
     4
100
AcDbPolyline
 90
        5
 70
     0
 43
0.0
 10
5.462449439524049
 20
-6.267771018017072
 10
3.268741904897523
 20
-1.880329216984876
 10
5.149073627986695
 20
-0.9401687853329292
 10
7.342781997981318
 20
-5.327610586365125
 10
5.462449439524049
 20
-6.267771018017072
  0
LINE
  5
3B5
330
398
100
AcDbEntity
  8
A
  6
SYMBOL_P
 62
     3
100
AcDbLine
 10
3.503787755966186
 20
0.0
 30
0.0
 11
7.007575511932372
 21
-7.007575511932372
 31
0.0
  0
ENDBLK
  5
3B7
330
398
100
AcDbEntity
  8
0
100
AcDbBlockEnd
  0
BLOCK
  5
40D
330
3C3
100
AcDbEntity
  8
0
100
AcDbBlockBegin
  2
_I447_KNX_0_3_1
 70
     2
 10
0.0
 20
0.0
 30
0.0
  3
_I447_KNX_0_3_1
  1

  0
ATTDEF
  5
3C4
330
3C3
100
AcDbEntity
  8
A
  6
FIN
 62
     1
100
AcDbText
 10
0.0
 20
-2.452651387407925
 30
0.0
 40
1.512885498915399
  1

 41
0.9200000000000001
  7
ARIAL
 72
     4
 11
0.0
 21
-2.452651387407925
 31
0.0
100
AcDbAttributeDefinition
  3

  2
$PL:1
 70
     0
 74
     2
  0
ATTDEF
  5
3C5
330
3C3
100
AcDbEntity
  8
A
  6
FIN
 62
     1
100
AcDbText
 10
7.007575511932372
 20
-2.452651387407925
 30
0.0
 40
1.512885498915399
  1

 41
0.9200000000000001
  7
ARIAL
 72
     4
 11
7.007575511932372
 21
-2.452651387407925
 31
0.0
100
AcDbAttributeDefinition
  3

  2
$PL:2
 70
     0
 74
     2
  0
ATTDEF
  5
3C6
330
3C3
100
AcDbEntity
  8
A
  6
FIN
 62
     1
100
AcDbText
 10
14.71590957749969
 20
-3.209094136865625
 30
0.0
 40
1.512885498915399
  1

 41
0.9200000000000001
  7
ARIAL
 11
14.71590957749969
 21
-2.452651387407925
 31
0.0
100
AcDbAttributeDefinition
  3

  2
$PL:3
 70
     0
 74
     2
  0
ATTDEF
  5
3C7
330
3C3
100
AcDbEntity
  8
A
  6
FIN
 62
     1
100
AcDbText
 10
0.0
 20
-24.87689273321269
 30
0.0
 40
1.512885498915399
  1

 41
0.9200000000000001
  7
ARIAL
 72
     4
 11
0.0
 21
-24.87689273321269
 31
0.0
100
AcDbAttributeDefinition
  3

  2
$PL:4
 70
     0
 74
     2
  0
ATTDEF
  5
3C8
330
3C3
100
AcDbEntity
  8
A
  6
FIN
 62
     1
100
AcDbText
 10
7.007575511932372
 20
-24.87689273321269
 30
0.0
 40
1.512885498915399
  1

 41
0.9200000000000001
  7
ARIAL
 72
     4
 11
7.007575511932372
 21
-24.87689273321269
 31
0.0
100
AcDbAttributeDefinition
  3

  2
$PL:5
 70
     0
 74
     2
  0
ATTDEF
  5
3C9
330
3C3
100
AcDbEntity
  8
A
  6
FIN
 62
     3
100
AcDbText
 10
-10.51136243253045
 20
-11.55874553637845
 30
0.0
 40
2.094764536959783
  1

 41
0.9200000000000001
  7
ARIAL
 72
     2
 11
-10.51136243253045
 21
-10.51136326789856
 31
0.0
100
AcDbAttributeDefinition
  3

  2
$ETIQUETTE
 70
     0
 74
     2
  0
ATTDEF
  5
3CA
330
3C3
100
AcDbEntity
  8
A
  6
FIN
 62
     3
100
AcDbText
 10
-10.51136243253045
 20
-8.288960414252768
 30
0.0
 40
1.86201292174203
  1

 41
0.9200000000000001
  7
ARIAL
 72
     2
 11
-10.51136243253045
 21
-7.357953953381753
 31
0.0
100
AcDbAttributeDefinition
  3

  2
$LOCALISATION
 70
     0
 74
     2
  0
ATTDEF
  5
3CB
330
3C3
100
AcDbEntity
  8
A
  6
FIN
 62
     3
100
AcDbText
 10
-10.51136243253045
 20
-5.485930376553437
 30
0.0
 40
1.86201292174203
  1

 41
0.9200000000000001
  7
ARIAL
 72
     2
 11
-10.51136243253045
 21
-4.554923915682422
 31
0.0
100
AcDbAttributeDefinition
  3

  2
$FONCTION
 70
     0
 74
     2
  0
ATTDEF
  5
3CC
330
3C3
100
AcDbEntity
  8
A
  6
FIN
 62
     1
100
AcDbText
 10
-10.51136076179426
 20
-16.93205399655936
 30
0.0
 40
1.629261306524276
  1

 41
0.9200000000000001
  7
ARIAL
 72
     2
 11
-10.51136076179426
 21
-16.11742334329722
 31
0.0
100
AcDbAttributeDefinition
  3

  2
CODE
 70
     0
 74
     2
  0
ATTDEF
  5
3CD
330
3C3
100
AcDbEntity
  8
A
  6
FIN
 62
     1
100
AcDbText
 10
-10.51136326789856
 20
-25.34114494502544
 30
0.0
 40
1.629261306524276
  1

 41
0.9200000000000001
  7
ARIAL
 72
     2
 11
-10.51136326789856
 21
-24.52651429176331
 31
0.0
100
AcDbAttributeDefinition
  3

  2
SYMBOLE
 70
     0
 74
     2
  0
ATTDEF
  5
3CE
330
3C3
100
AcDbEntity
  8
A
  6
FIN
 62
     1
100
AcDbText
 10
-10.51136326789856
 20
-22.53811407195801
 30
0.0
 40
1.629261306524276
  1

 41
0.9200000000000001
  7
ARIAL
 72
     2
 11
-10.51136326789856
 21
-21.72348341869587
 31
0.0
100
AcDbAttributeDefinition
  3

  2
$POS_REFCRO_1
 70
     0
 74
     2
  0
ATTDEF
  5
3CF
330
3C3
100
AcDbEntity
  8
A
  6
FIN
 62
     1
100
AcDbText
 10
-10.51136076179426
 20
-14.12902395886003
 30
0.0
 40
1.629261306524276
  1

 41
0.9200000000000001
  7
ARIAL
 72
     2
 11
-10.51136076179426
 21
-13.31439330559789
 31
0.0
100
AcDbAttributeDefinition
  3

  2
FABRICANT
 70
     0
 74
     2
  0
ATTDEF
  5
3D0
330
3C3
100
AcDbEntity
  8
A
  6
FIN
 62
     1
100
AcDbText
 10
-10.51136326789856
 20
-19.73508486962678
 30
0.0
 40
1.629261306524276
  1

 41
0.9200000000000001
  7
ARIAL
 72
     2
 11
-10.51136326789856
 21
-18.92045421636465
 31
0.0
100
AcDbAttributeDefinition
  3

  2
SERIE
 70
     0
 74
     2
  0
ATTDEF
  5
3D1
330
3C3
100
AcDbEntity
  8
A
  6
FIN
 62
     1
100
AcDbText
 10
14.01515102386475
 20
-24.87689440394888
 30
0.0
 40
1.512885498915399
  1

 41
0.9200000000000001
  7
ARIAL
 72
     4
 11
14.01515102386475
 21
-24.87689440394888
 31
0.0
100
AcDbAttributeDefinition
  3

  2
$PL:6
 70
     0
 74
     2
  0
ATTDEF
  5
3D2
330
3C3
100
AcDbEntity
  8
A
  6
FIN
 62
     1
100
AcDbText
 10
21.02272653579712
 20
-24.87689440394888
 30
0.0
 40
1.512885498915399
  1

 41
0.9200000000000001
  7
ARIAL
 72
     4
 11
21.02272653579712
 21
-24.87689440394888
 31
0.0
100
AcDbAttributeDefinition
  3

  2
$PL:7
 70
     0
 74
     2
  0
LWPOLYLINE
  5
3D3
330
3C3
100
AcDbEntity
  8
A
  6
FIN
 62
     7
100
AcDbPolyline
 90
        5
 70
     0
 43
0.0
 10
31.53408980369567
 20
0.0
 10
-7.007575511932372
 20
0.0
 10
-7.007575511932372
 20
-28.03030204772948
 10
31.53408980369567
 20
-28.03030204772948
 10
31.53408980369567
 20
0.0
  0
CIRCLE
  5
3DA
330
3C3
100
AcDbEntity
  8
A
  6
SYMBOL_C
 62
     4
100
AcDbCircle
 10
0.0
 20
-0.7007575616353386
 30
0.0
 40
0.7007575616353386
  0
CIRCLE
  5
3DB
330
3C3
100
AcDbEntity
  8
A
  6
SYMBOL_C
 62
     4
100
AcDbCircle
 10
7.007575511932372
 20
-0.7007575616353386
 30
0.0
 40
0.7007575616353386
  0
CIRCLE
  5
3DC
330
3C3
100
AcDbEntity
  8
A
  6
SYMBOL_C
 62
     4
100
AcDbCircle
 10
0.0
 20
0.0
 30
0.0
 40
0.0
  0
LINE
  5
3DD
330
3C3
100
AcDbEntity
  8
A
  6
MOYEN
 62
     4
100
AcDbLine
 10
0.0
 20
0.0
 30
0.0
 11
0.0
 21
0.0
 31
0.0
  0
LINE
  5
3DE
330
3C3
100
AcDbEntity
  8
A
  6
MOYEN
 62
     4
100
AcDbLine
 10
0.0
 20
0.0
 30
0.0
 11
0.0
 21
0.0
 31
0.0
  0
LINE
  5
3DF
330
3C3
100
AcDbEntity
  8
A
  6
MOYEN
 62
     4
100
AcDbLine
 10
0.0
 20
0.0
 30
0.0
 11
0.0
 21
0.0
 31
0.0
  0
LINE
  5
3E0
330
3C3
100
AcDbEntity
  8
A
  6
MOYEN
 62
     4
100
AcDbLine
 10
0.0
 20
0.0
 30
0.0
 11
0.0
 21
0.0
 31
0.0
  0
CIRCLE
  5
3E1
330
3C3
100
AcDbEntity
  8
A
  6
SYMBOL_C
 62
     4
100
AcDbCircle
 10
0.0
 20
-0.7007575616353386
 30
0.0
 40
0.7007575616353386
  0
CIRCLE
  5
3E2
330
3C3
100
AcDbEntity
  8
A
  6
SYMBOL_C
 62
     4
100
AcDbCircle
 10
7.007575511932372
 20
-0.7007575616353386
 30
0.0
 40
0.7007575616353386
  0
LINE
  5
3E3
330
3C3
100
AcDbEntity
  8
A
  6
MOYEN
 62
     4
100
AcDbLine
 10
12.26325714588165
 20
-4.554922662630276
 30
0.0
 11
15.76704490184783
 21
-4.554922662630276
 31
0.0
  0
LINE
  5
3E4
330
3C3
100
AcDbEntity
  8
A
  6
MOYEN
 62
     4
100
AcDbLine
 10
12.96401737025281
 20
-5.255682887001427
 30
0.0
 11
15.06629136042147
 21
-5.255682887001427
 31
0.0
  0
LINE
  5
3E5
330
3C3
100
AcDbEntity
  8
A
  6
MOYEN
 62
     4
100
AcDbLine
 10
13.66477091167917
 20
-5.956436428427792
 30
0.0
 11
14.36553113605032
 21
-5.956436428427792
 31
0.0
  0
LINE
  5
3E6
330
3C3
100
AcDbEntity
  8
A
  6
MOYEN
 62
     4
100
AcDbLine
 10
14.01515102386475
 20
-4.554924333366471
 30
0.0
 11
14.01515102386475
 21
-1.401515123270677
 31
0.0
  0
CIRCLE
  5
3E7
330
3C3
100
AcDbEntity
  8
A
  6
SYMBOL_C
 62
     4
100
AcDbCircle
 10
14.01515102386475
 20
-0.7007575616353386
 30
0.0
 40
0.7007575616353386
  0
CIRCLE
  5
3E8
330
3C3
100
AcDbEntity
  8
A
  6
SYMBOL_C
 62
     4
100
AcDbCircle
 10
14.01515102386475
 20
-0.7007575616353386
 30
0.0
 40
0.7007575616353386
  0
CIRCLE
  5
3E9
330
3C3
100
AcDbEntity
  8
A
  6
SYMBOL_C
 62
     4
100
AcDbCircle
 10
0.0
 20
-27.32954516483073
 30
0.0
 40
0.7007568828987587
  0
CIRCLE
  5
3EA
330
3C3
100
AcDbEntity
  8
A
  6
SYMBOL_C
 62
     4
100
AcDbCircle
 10
0.0
 20
-26.62878661119578
 30
0.0
 40
0.0
  0
LINE
  5
3EB
330
3C3
100
AcDbEntity
  8
A
  6
MOYEN
 62
     4
100
AcDbLine
 10
0.0
 20
-26.62878661119578
 30
0.0
 11
0.0
 21
-26.62878661119578
 31
0.0
  0
LINE
  5
3EC
330
3C3
100
AcDbEntity
  8
A
  6
MOYEN
 62
     4
100
AcDbLine
 10
0.0
 20
-26.62878661119578
 30
0.0
 11
0.0
 21
-26.62878661119578
 31
0.0
  0
LINE
  5
3ED
330
3C3
100
AcDbEntity
  8
A
  6
MOYEN
 62
     4
100
AcDbLine
 10
0.0
 20
-26.62878661119578
 30
0.0
 11
0.0
 21
-26.62878661119578
 31
0.0
  0
LINE
  5
3EE
330
3C3
100
AcDbEntity
  8
A
  6
MOYEN
 62
     4
100
AcDbLine
 10
0.0
 20
-26.62878661119578
 30
0.0
 11
0.0
 21
-26.62878661119578
 31
0.0
  0
CIRCLE
  5
3EF
330
3C3
100
AcDbEntity
  8
A
  6
SYMBOL_C
 62
     4
100
AcDbCircle
 10
0.0
 20
-27.32954516483073
 30
0.0
 40
0.7007568828987587
  0
CIRCLE
  5
3F0
330
3C3
100
AcDbEntity
  8
A
  6
SYMBOL_C
 62
     4
100
AcDbCircle
 10
7.007575511932372
 20
-27.32954516483073
 30
0.0
 40
0.7007568828987587
  0
CIRCLE
  5
3F1
330
3C3
100
AcDbEntity
  8
A
  6
SYMBOL_C
 62
     4
100
AcDbCircle
 10
14.01515102386475
 20
-27.32954516483073
 30
0.0
 40
0.7007568828987587
  0
CIRCLE
  5
3F2
330
3C3
100
AcDbEntity
  8
A
  6
SYMBOL_C
 62
     4
100
AcDbCircle
 10
21.02272653579712
 20
-27.32954516483073
 30
0.0
 40
0.7007568828987587
  0
CIRCLE
  5
3F3
330
3C3
100
AcDbEntity
  8
A
  6
SYMBOL_C
 62
     4
100
AcDbCircle
 10
7.007575511932372
 20
-26.62878661119578
 30
0.0
 40
0.0
  0
CIRCLE
  5
3F4
330
3C3
100
AcDbEntity
  8
A
  6
SYMBOL_C
 62
     4
100
AcDbCircle
 10
14.01515102386475
 20
-26.62878661119578
 30
0.0
 40
0.0
  0
CIRCLE
  5
3F5
330
3C3
100
AcDbEntity
  8
A
  6
SYMBOL_C
 62
     4
100
AcDbCircle
 10
21.02272653579712
 20
-26.62878661119578
 30
0.0
 40
0.0
  0
LINE
  5
3F6
330
3C3
100
AcDbEntity
  8
A
  6
MOYEN
 62
     4
100
AcDbLine
 10
7.007575511932372
 20
-26.62878661119578
 30
0.0
 11
7.007575511932372
 21
-26.62878661119578
 31
0.0
  0
LINE
  5
3F7
330
3C3
100
AcDbEntity
  8
A
  6
MOYEN
 62
     4
100
AcDbLine
 10
14.01515102386475
 20
-26.62878661119578
 30
0.0
 11
14.01515102386475
 21
-26.62878661119578
 31
0.0
  0
LINE
  5
3F8
330
3C3
100
AcDbEntity
  8
A
  6
MOYEN
 62
     4
100
AcDbLine
 10
21.02272653579712
 20
-26.62878661119578
 30
0.0
 11
21.02272653579712
 21
-26.62878661119578
 31
0.0
  0
LINE
  5
3F9
330
3C3
100
AcDbEntity
  8
A
  6
MOYEN
 62
     4
100
AcDbLine
 10
7.007575511932372
 20
-26.62878661119578
 30
0.0
 11
7.007575511932372
 21
-26.62878661119578
 31
0.0
  0
LINE
  5
3FA
330
3C3
100
AcDbEntity
  8
A
  6
MOYEN
 62
     4
100
AcDbLine
 10
14.01515102386475
 20
-26.62878661119578
 30
0.0
 11
14.01515102386475
 21
-26.62878661119578
 31
0.0
  0
LINE
  5
3FB
330
3C3
100
AcDbEntity
  8
A
  6
MOYEN
 62
     4
100
AcDbLine
 10
21.02272653579712
 20
-26.62878661119578
 30
0.0
 11
21.02272653579712
 21
-26.62878661119578
 31
0.0
  0
LINE
  5
3FC
330
3C3
100
AcDbEntity
  8
A
  6
MOYEN
 62
     4
100
AcDbLine
 10
7.007575511932372
 20
-26.62878661119578
 30
0.0
 11
7.007575511932372
 21
-26.62878661119578
 31
0.0
  0
LINE
  5
3FD
330
3C3
100
AcDbEntity
  8
A
  6
MOYEN
 62
     4
100
AcDbLine
 10
14.01515102386475
 20
-26.62878661119578
 30
0.0
 11
14.01515102386475
 21
-26.62878661119578
 31
0.0
  0
LINE
  5
3FE
330
3C3
100
AcDbEntity
  8
A
  6
MOYEN
 62
     4
100
AcDbLine
 10
21.02272653579712
 20
-26.62878661119578
 30
0.0
 11
21.02272653579712
 21
-26.62878661119578
 31
0.0
  0
LINE
  5
3FF
330
3C3
100
AcDbEntity
  8
A
  6
MOYEN
 62
     4
100
AcDbLine
 10
7.007575511932372
 20
-26.62878661119578
 30
0.0
 11
7.007575511932372
 21
-26.62878661119578
 31
0.0
  0
LINE
  5
400
330
3C3
100
AcDbEntity
  8
A
  6
MOYEN
 62
     4
100
AcDbLine
 10
14.01515102386475
 20
-26.62878661119578
 30
0.0
 11
14.01515102386475
 21
-26.62878661119578
 31
0.0
  0
LINE
  5
401
330
3C3
100
AcDbEntity
  8
A
  6
MOYEN
 62
     4
100
AcDbLine
 10
21.02272653579712
 20
-26.62878661119578
 30
0.0
 11
21.02272653579712
 21
-26.62878661119578
 31
0.0
  0
CIRCLE
  5
402
330
3C3
100
AcDbEntity
  8
A
  6
SYMBOL_C
 62
     4
100
AcDbCircle
 10
7.007575511932372
 20
-27.32954516483073
 30
0.0
 40
0.7007568828987587
  0
CIRCLE
  5
403
330
3C3
100
AcDbEntity
  8
A
  6
SYMBOL_C
 62
     4
100
AcDbCircle
 10
14.01515102386475
 20
-27.32954516483073
 30
0.0
 40
0.7007568828987587
  0
CIRCLE
  5
404
330
3C3
100
AcDbEntity
  8
A
  6
SYMBOL_C
 62
     4
100
AcDbCircle
 10
21.02272653579712
 20
-27.32954516483073
 30
0.0
 40
0.7007568828987587
  0
LINE
  5
405
330
3C3
100
AcDbEntity
  8
A
  6
FIN
 62
     7
100
AcDbLine
 10
0.0
 20
-21.02272653579712
 30
0.0
 11
21.02272653579712
 21
-21.02272653579712
 31
0.0
  0
LINE
  5
406
330
3C3
100
AcDbEntity
  8
A
  6
FIN
 62
     7
100
AcDbLine
 10
0.0
 20
-7.007575511932372
 30
0.0
 11
14.01515102386475
 21
-7.007575511932372
 31
0.0
  0
TEXT
  5
407
330
3C3
100
AcDbEntity
  8
A
  6
FIN
 62
     1
100
AcDbText
 10
5.710665695937786
 20
-23.54508147529466
 30
0.0
 40
1.512885498915399
  1
BK
 41
0.9200000000000001
  7
ARIAL
 72
     4
 11
7.007578018036668
 21
-22.78863872583695
 31
0.0
100
AcDbText
  0
TEXT
  5
408
330
3C3
100
AcDbEntity
  8
A
  6
FIN
 62
     1
100
AcDbText
 10
-1.404197162799595
 20
-23.54508147529466
 30
0.0
 40
1.512885498915399
  1
RD
 41
0.9200000000000001
  7
ARIAL
 72
     4
 11
0.0
 21
-22.78863872583695
 31
0.0
100
AcDbText
  0
TEXT
  5
409
330
3C3
100
AcDbEntity
  8
A
  6
FIN
 62
     1
100
AcDbText
 10
19.72581839053872
 20
-23.54508147529466
 30
0.0
 40
1.512885498915399
  1
BK
 41
0.9200000000000001
  7
ARIAL
 72
     4
 11
21.0227307126376
 21
-22.78863872583695
 31
0.0
100
AcDbText
  0
TEXT
  5
40A
330
3C3
100
AcDbEntity
  8
A
  6
FIN
 62
     1
100
AcDbText
 10
12.6109534433811
 20
-23.54508147529466
 30
0.0
 40
1.512885498915399
  1
RD
 41
0.9200000000000001
  7
ARIAL
 72
     4
 11
14.01515060618069
 21
-22.78863872583695
 31
0.0
100
AcDbText
  0
TEXT
  5
40B
330
3C3
100
AcDbEntity
  8
A
  6
FIN
 62
     1
100
AcDbText
 10
6.29687293276171
 20
-20.02890993625413
 30
0.0
 40
1.512885498915399
  1
Bus  KNX
 41
0.9200000000000001
  7
ARIAL
 72
     4
 11
10.51136326789856
 21
-19.28485096987077
 31
0.0
100
AcDbText
  0
TEXT
  5
40C
330
3C3
100
AcDbEntity
  8
A
  6
FIN
 62
     1
100
AcDbText
 10
0.9540516932948301
 20
-9.879792901917863
 30
0.0
 40
1.512885498915399
  1
120...230VAC
 41
0.9200000000000001
  7
ARIAL
 72
     4
 11
7.007575094248324
 21
-9.123866143421594
 31
0.0
100
AcDbText
  0
ENDBLK
  5
40E
330
3C3
100
AcDbEntity
  8
0
100
AcDbBlockEnd
  0
BLOCK
  5
42B
330
426
100
AcDbEntity
  8
0
100
AcDbBlockBegin
  2
T12C0N_T01_0_3_1
 70
     0
 10
0.0
 20
0.0
 30
0.0
  3
T12C0N_T01_0_3_1
  1

  0
LINE
  5
427
330
426
100
AcDbEntity
  8
A
  6
MOYEN
 62
     4
100
AcDbLine
 10
0.0
 20
0.0
 30
0.0
 11
0.0
 21
-2.102272737116521
 31
0.0
  0
LINE
  5
428
330
426
100
AcDbEntity
  8
A
  6
MOYEN
 62
     4
100
AcDbLine
 10
-1.751893877983093
 20
-2.102272737116521
 30
0.0
 11
1.751893877983093
 21
-2.102272737116521
 31
0.0
  0
LINE
  5
429
330
426
100
AcDbEntity
  8
A
  6
MOYEN
 62
     4
100
AcDbLine
 10
-1.051136159716236
 20
-2.803030455383378
 30
0.0
 11
1.051136159716236
 21
-2.803030455383378
 31
0.0
  0
LINE
  5
42A
330
426
100
AcDbEntity
  8
A
  6
MOYEN
 62
     4
100
AcDbLine
 10
-0.3503784414493794
 20
-3.503788173650236
 30
0.0
 11
0.3503784414493794
 21
-3.503788173650236
 31
0.0
  0
ENDBLK
  5
42C
330
426
100
AcDbEntity
  8
0
100
AcDbBlockEnd
  0
BLOCK
  5
439
330
42F
100
AcDbEntity
  8
0
100
AcDbBlockBegin
  2
006C0_000_0_3_1
 70
     2
 10
0.0
 20
0.0
 30
0.0
  3
006C0_000_0_3_1
  1

  0
ATTDEF
  5
430
330
42F
100
AcDbEntity
  8
A
  6
FIN
 62
     3
100
AcDbText
 10
-0.3503787808176693
 20
-2.803030246541354
 30
0.0
 40
1.280133883697645
  1

 50
90.0
 41
0.9200000000000001
  7
ARIAL
 72
     4
 11
-0.3503787808176693
 21
-2.803030246541354
 31
0.0
100
AcDbAttributeDefinition
  3

  2
$REPERE
 70
     0
 74
     2
  0
ATTDEF
  5
431
330
42F
100
AcDbEntity
  8
A
  6
FIN
 62
     1
100
AcDbText
 10
-1.287642083854383
 20
1.751893877983093
 30
0.0
 40
1.629261306524276
  1

 50
90.0
 41
0.9200000000000001
  7
ARIAL
 11
-2.102272737116521
 21
1.751893877983093
 31
0.0
100
AcDbAttributeDefinition
  3

  2
$NUM_EQUI
 70
     0
 74
     2
  0
ATTDEF
  5
432
330
42F
100
AcDbEntity
  8
A
  6
FIN
 62
     1
100
AcDbText
 10
-0.3503734292407899
 20
-3.153387594946252
 30
0.0
 40
1.280133883697645
  1

 50
90.0
 41
0.9200000000000001
  7
ARIAL
 72
     4
 11
-0.3503734292407899
 21
-3.153387594946252
 31
0.0
100
AcDbAttributeDefinition
  3

  2
$POS_REFCRO_1
 70
     0
 74
     2
  0
LINE
  5
433
330
42F
100
AcDbEntity
  8
A
  6
MOYEN
 62
     4
100
AcDbLine
 10
-1.401515123270677
 20
0.0
 30
0.0
 11
1.401515123270677
 21
0.0
 31
0.0
  0
LINE
  5
434
330
42F
100
AcDbEntity
  8
A
  6
MOYEN
 62
     4
100
AcDbLine
 10
1.401515123270677
 20
0.0
 30
0.0
 11
1.401515123270677
 21
-5.25568163394928
 31
0.0
  0
LINE
  5
435
330
42F
100
AcDbEntity
  8
A
  6
MOYEN
 62
     4
100
AcDbLine
 10
1.401515123270677
 20
-5.25568163394928
 30
0.0
 11
0.0
 21
-7.007575511932372
 31
0.0
  0
LINE
  5
436
330
42F
100
AcDbEntity
  8
A
  6
MOYEN
 62
     4
100
AcDbLine
 10
0.0
 20
-7.007575511932372
 30
0.0
 11
-1.401515123270677
 21
-5.25568163394928
 31
0.0
  0
LINE
  5
437
330
42F
100
AcDbEntity
  8
A
  6
MOYEN
 62
     4
100
AcDbLine
 10
-1.401515123270677
 20
-5.25568163394928
 30
0.0
 11
-1.401515123270677
 21
0.0
 31
0.0
  0
LINE
  5
438
330
42F
100
AcDbEntity
  8
A
  6
MOYEN
 62
     4
100
AcDbLine
 10
0.0
 20
0.0
 30
0.0
 11
0.0
 21
0.7007575616353386
 31
0.0
  0
ENDBLK
  5
43A
330
42F
100
AcDbEntity
  8
0
100
AcDbBlockEnd
  0
BLOCK
  5
483
330
444
100
AcDbEntity
  8
0
100
AcDbBlockBegin
  2
_I448_KNX_0_3_1
 70
     2
 10
0.0
 20
0.0
 30
0.0
  3
_I448_KNX_0_3_1
  1

  0
ATTDEF
  5
445
330
444
100
AcDbEntity
  8
A
  6
FIN
 62
     3
100
AcDbText
 10
-36.78977143764496
 20
-11.55874553637845
 30
0.0
 40
2.094764536959783
  1

 41
0.9200000000000001
  7
ARIAL
 72
     2
 11
-36.78977143764496
 21
-10.51136326789856
 31
0.0
100
AcDbAttributeDefinition
  3

  2
$ETIQUETTE
 70
     0
 74
     2
  0
ATTDEF
  5
446
330
444
100
AcDbEntity
  8
A
  6
FIN
 62
     3
100
AcDbText
 10
-36.78977143764496
 20
-8.288962084988964
 30
0.0
 40
1.86201292174203
  1

 41
0.9200000000000001
  7
ARIAL
 72
     2
 11
-36.78977143764496
 21
-7.357955624117948
 31
0.0
100
AcDbAttributeDefinition
  3

  2
$LOCALISATION
 70
     0
 74
     2
  0
ATTDEF
  5
447
330
444
100
AcDbEntity
  8
A
  6
FIN
 62
     3
100
AcDbText
 10
-36.78977143764496
 20
-5.485927870449143
 30
0.0
 40
1.86201292174203
  1

 41
0.9200000000000001
  7
ARIAL
 72
     2
 11
-36.78977143764496
 21
-4.554921409578128
 31
0.0
100
AcDbAttributeDefinition
  3

  2
$FONCTION
 70
     0
 74
     2
  0
ATTDEF
  5
448
330
444
100
AcDbEntity
  8
A
  6
FIN
 62
     1
100
AcDbText
 10
-36.78977143764496
 20
-19.73508319889059
 30
0.0
 40
1.629261306524276
  1

 41
0.9200000000000001
  7
ARIAL
 72
     2
 11
-36.78977143764496
 21
-18.92045254562845
 31
0.0
100
AcDbAttributeDefinition
  3

  2
$POS_REFCRO_1
 70
     0
 74
     2
  0
ATTDEF
  5
449
330
444
100
AcDbEntity
  8
A
  6
FIN
 62
     1
100
AcDbText
 10
-36.78977143764496
 20
-16.93204898435077
 30
0.0
 40
1.629261306524276
  1

 41
0.9200000000000001
  7
ARIAL
 72
     2
 11
-36.78977143764496
 21
-16.11741833108863
 31
0.0
100
AcDbAttributeDefinition
  3

  2
CODE
 70
     0
 74
     2
  0
ATTDEF
  5
44A
330
444
100
AcDbEntity
  8
A
  6
FIN
 62
     1
100
AcDbText
 10
-36.78977143764496
 20
-22.18773061830005
 30
0.0
 40
1.629261306524276
  1

 41
0.9200000000000001
  7
ARIAL
 72
     2
 11
-36.78977143764496
 21
-21.37309996503791
 31
0.0
100
AcDbAttributeDefinition
  3

  2
SYMBOLE
 70
     0
 74
     2
  0
ATTDEF
  5
44B
330
444
100
AcDbEntity
  8
A
  6
FIN
 62
     1
100
AcDbText
 10
-36.78977143764496
 20
-14.4794015649413
 30
0.0
 40
1.629261306524276
  1

 41
0.9200000000000001
  7
ARIAL
 72
     2
 11
-36.78977143764496
 21
-13.66477091167917
 31
0.0
100
AcDbAttributeDefinition
  3

  2
FABRICANT
 70
     0
 74
     2
  0
ATTDEF
  5
44C
330
444
100
AcDbEntity
  8
A
  6
FIN
 62
     1
100
AcDbText
 10
-36.78976475470017
 20
-24.64038472065428
 30
0.0
 40
1.629261306524276
  1

 41
0.9200000000000001
  7
ARIAL
 72
     2
 11
-36.78976475470017
 21
-23.82575406739215
 31
0.0
100
AcDbAttributeDefinition
  3

  2
SERIE
 70
     0
 74
     2
  0
ATTDEF
  5
44D
330
444
100
AcDbEntity
  8
A
  6
FIN
 62
     1
100
AcDbText
 10
-28.03030204772948
 20
-24.87689273321269
 30
0.0
 40
1.512885498915399
  1

 41
0.9200000000000001
  7
ARIAL
 72
     4
 11
-28.03030204772948
 21
-24.87689273321269
 31
0.0
100
AcDbAttributeDefinition
  3

  2
$PL:1
 70
     0
 74
     2
  0
ATTDEF
  5
44E
330
444
100
AcDbEntity
  8
A
  6
FIN
 62
     1
100
AcDbText
 10
-21.02272653579712
 20
-24.87689273321269
 30
0.0
 40
1.512885498915399
  1

 41
0.9200000000000001
  7
ARIAL
 72
     4
 11
-21.02272653579712
 21
-24.87689273321269
 31
0.0
100
AcDbAttributeDefinition
  3

  2
$PL:2
 70
     0
 74
     2
  0
ATTDEF
  5
44F
330
444
100
AcDbEntity
  8
A
  6
FIN
 62
     1
100
AcDbText
 10
-14.01515102386475
 20
-24.87689273321269
 30
0.0
 40
1.512885498915399
  1

 41
0.9200000000000001
  7
ARIAL
 72
     4
 11
-14.01515102386475
 21
-24.87689273321269
 31
0.0
100
AcDbAttributeDefinition
  3

  2
$PL:3
 70
     0
 74
     2
  0
ATTDEF
  5
450
330
444
100
AcDbEntity
  8
A
  6
FIN
 62
     1
100
AcDbText
 10
-7.007575511932372
 20
-24.87689273321269
 30
0.0
 40
1.512885498915399
  1

 41
0.9200000000000001
  7
ARIAL
 72
     4
 11
-7.007575511932372
 21
-24.87689273321269
 31
0.0
100
AcDbAttributeDefinition
  3

  2
$PL:4
 70
     0
 74
     2
  0
ATTDEF
  5
451
330
444
100
AcDbEntity
  8
A
  6
FIN
 62
     1
100
AcDbText
 10
0.0
 20
-4.554924333366471
 30
0.0
 40
1.512885498915399
  1

 41
0.9200000000000001
  7
ARIAL
 72
     4
 11
0.0
 21
-4.554924333366471
 31
0.0
100
AcDbAttributeDefinition
  3

  2
$PL:5
 70
     0
 74
     2
  0
ATTDEF
  5
452
330
444
100
AcDbEntity
  8
A
  6
FIN
 62
     1
100
AcDbText
 10
7.007575511932372
 20
-24.87689273321269
 30
0.0
 40
1.512885498915399
  1

 41
0.9200000000000001
  7
ARIAL
 72
     4
 11
7.007575511932372
 21
-24.87689273321269
 31
0.0
100
AcDbAttributeDefinition
  3

  2
$PL:25
 70
     0
 74
     2
  0
ATTDEF
  5
453
330
444
100
AcDbEntity
  8
A
  6
FIN
 62
     1
100
AcDbText
 10
14.01515102386475
 20
-24.87689273321269
 30
0.0
 40
1.512885498915399
  1

 41
0.9200000000000001
  7
ARIAL
 72
     4
 11
14.01515102386475
 21
-24.87689273321269
 31
0.0
100
AcDbAttributeDefinition
  3

  2
$PL:26
 70
     0
 74
     2
  0
ATTDEF
  5
454
330
444
100
AcDbEntity
  8
A
  6
FIN
 62
     1
100
AcDbText
 10
21.02272653579712
 20
-24.87689273321269
 30
0.0
 40
1.512885498915399
  1

 41
0.9200000000000001
  7
ARIAL
 72
     4
 11
21.02272653579712
 21
-24.87689273321269
 31
0.0
100
AcDbAttributeDefinition
  3

  2
$PL:27
 70
     0
 74
     2
  0
ATTDEF
  5
455
330
444
100
AcDbEntity
  8
A
  6
FIN
 62
     1
100
AcDbText
 10
28.03030204772948
 20
-24.87689273321269
 30
0.0
 40
1.512885498915399
  1

 41
0.9200000000000001
  7
ARIAL
 72
     4
 11
28.03030204772948
 21
-24.87689273321269
 31
0.0
100
AcDbAttributeDefinition
  3

  2
$PL:28
 70
     0
 74
     2
  0
LWPOLYLINE
  5
456
330
444
100
AcDbEntity
  8
A
  6
FIN
 62
     7
100
AcDbPolyline
 90
        5
 70
     0
 43
0.0
 10
-35.03787755966187
 20
0.0
 10
35.03787755966187
 20
0.0
 10
35.03787755966187
 20
-28.03030204772948
 10
-35.03787755966187
 20
-28.03030204772948
 10
-35.03787755966187
 20
0.0
  0
CIRCLE
  5
45D
330
444
100
AcDbEntity
  8
A
  6
SYMBOL_C
 62
     4
100
AcDbCircle
 10
-7.007575511932372
 20
-27.32954349409453
 30
0.0
 40
0.7007568828987587
  0
CIRCLE
  5
45E
330
444
100
AcDbEntity
  8
A
  6
SYMBOL_C
 62
     4
100
AcDbCircle
 10
7.007575511932372
 20
-27.32954516483073
 30
0.0
 40
0.7007568828987587
  0
CIRCLE
  5
45F
330
444
100
AcDbEntity
  8
A
  6
SYMBOL_C
 62
     4
100
AcDbCircle
 10
14.01515102386475
 20
-27.32954516483073
 30
0.0
 40
0.7007568828987587
  0
CIRCLE
  5
460
330
444
100
AcDbEntity
  8
A
  6
SYMBOL_C
 62
     4
100
AcDbCircle
 10
21.02272653579712
 20
-27.32954516483073
 30
0.0
 40
0.7007568828987587
  0
CIRCLE
  5
461
330
444
100
AcDbEntity
  8
A
  6
SYMBOL_C
 62
     4
100
AcDbCircle
 10
28.03030204772948
 20
-27.32954516483073
 30
0.0
 40
0.7007568828987587
  0
CIRCLE
  5
462
330
444
100
AcDbEntity
  8
A
  6
SYMBOL_C
 62
     4
100
AcDbCircle
 10
-28.03030204772948
 20
-27.32954182335834
 30
0.0
 40
0.7007568828987587
  0
CIRCLE
  5
463
330
444
100
AcDbEntity
  8
A
  6
SYMBOL_C
 62
     4
100
AcDbCircle
 10
-21.02272653579712
 20
-27.32954349409453
 30
0.0
 40
0.7007568828987587
  0
CIRCLE
  5
464
330
444
100
AcDbEntity
  8
A
  6
SYMBOL_C
 62
     4
100
AcDbCircle
 10
-14.01515102386475
 20
-27.32954182335834
 30
0.0
 40
0.7007568828987587
  0
LINE
  5
465
330
444
100
AcDbEntity
  8
A
  6
FIN
 62
     7
100
AcDbLine
 10
7.007575511932372
 20
-21.02272653579712
 30
0.0
 11
28.03030204772948
 21
-21.02272653579712
 31
0.0
  0
LINE
  5
466
330
444
100
AcDbEntity
  8
A
  6
FIN
 62
     7
100
AcDbLine
 10
-28.03030204772948
 20
-21.02272653579712
 30
0.0
 11
-7.007575511932372
 21
-21.02272653579712
 31
0.0
  0
LWPOLYLINE
  5
467
330
444
100
AcDbEntity
  8
A
  6
FIN
 62
     7
100
AcDbPolyline
 90
        5
 70
     0
 43
0.0
 10
3.503787755966186
 20
-0.7007568828987587
 10
3.503787755966186
 20
-7.708332394831132
 10
-3.503787755966186
 20
-7.708332394831132
 10
-3.503787755966186
 20
-0.7007568828987587
 10
3.503787755966186
 20
-0.7007568828987587
  0
LWPOLYLINE
  5
46E
330
444
100
AcDbEntity
  8
A
  6
FIN
 62
     7
100
AcDbPolyline
 90
        9
 70
     0
 43
0.0
 10
2.803029202331231
 20
-2.452650760881851
 10
2.803029202331231
 20
-7.007575511932372
 10
-2.803030873067428
 20
-7.007575511932372
 10
-2.803030873067428
 20
-2.452650760881851
 10
-1.051136995084335
 20
-2.452650760881851
 10
-1.051136995084335
 20
-1.401513765797516
 10
1.051135324348138
 20
-1.401513765797516
 10
1.051135324348138
 20
-2.452650760881851
 10
2.803029202331231
 20
-2.452650760881851
  0
TEXT
  5
479
330
444
100
AcDbEntity
  8
A
  6
FIN
 62
     1
100
AcDbText
 10
12.39543768008303
 20
-23.54508147529466
 30
0.0
 40
1.512885498915399
  1
WH
 41
0.9200000000000001
  7
ARIAL
 72
     4
 11
14.01515394765309
 21
-22.78863872583695
 31
0.0
100
AcDbText
  0
TEXT
  5
47A
330
444
100
AcDbEntity
  8
A
  6
FIN
 62
     1
100
AcDbText
 10
5.710663189833489
 20
-23.54508147529466
 30
0.0
 40
1.512885498915399
  1
YE
 41
0.9200000000000001
  7
ARIAL
 72
     4
 11
7.007575511932372
 21
-22.78863872583695
 31
0.0
100
AcDbText
  0
TEXT
  5
47B
330
444
100
AcDbEntity
  8
A
  6
FIN
 62
     1
100
AcDbText
 10
26.41058578015943
 20
-23.54508147529466
 30
0.0
 40
1.512885498915399
  1
WH
 41
0.9200000000000001
  7
ARIAL
 72
     4
 11
28.03030204772948
 21
-22.78863872583695
 31
0.0
100
AcDbText
  0
TEXT
  5
47C
330
444
100
AcDbEntity
  8
A
  6
FIN
 62
     1
100
AcDbText
 10
19.72581504906633
 20
-23.54508147529466
 30
0.0
 40
1.512885498915399
  1
YE
 41
0.9200000000000001
  7
ARIAL
 72
     4
 11
21.02272737116521
 21
-22.78863872583695
 31
0.0
100
AcDbText
  0
TEXT
  5
47D
330
444
100
AcDbEntity
  8
A
  6
FIN
 62
     1
100
AcDbText
 10
12.76422529466224
 20
-20.04129371932847
 30
0.0
 40
1.512885498915399
  1
24VAC/DC
 41
0.9200000000000001
  7
ARIAL
 72
     4
 11
17.51893752677879
 21
-19.28485096987077
 31
0.0
100
AcDbText
  0
TEXT
  5
47E
330
444
100
AcDbEntity
  8
A
  6
FIN
 62
     1
100
AcDbText
 10
-22.31963468105551
 20
-23.54508147529466
 30
0.0
 40
1.512885498915399
  1
BK
 41
0.9200000000000001
  7
ARIAL
 72
     4
 11
-21.02272235895662
 21
-22.78863872583695
 31
0.0
100
AcDbText
  0
TEXT
  5
47F
330
444
100
AcDbEntity
  8
A
  6
FIN
 62
     1
100
AcDbText
 10
-29.43449921052908
 20
-23.54508147529466
 30
0.0
 40
1.512885498915399
  1
RD
 41
0.9200000000000001
  7
ARIAL
 72
     4
 11
-28.03030204772948
 21
-22.78863872583695
 31
0.0
100
AcDbText
  0
TEXT
  5
480
330
444
100
AcDbEntity
  8
A
  6
FIN
 62
     1
100
AcDbText
 10
-8.304484492558863
 20
-23.54508147529466
 30
0.0
 40
1.512885498915399
  1
BK
 41
0.9200000000000001
  7
ARIAL
 72
     4
 11
-7.00757217045998
 21
-22.78863872583695
 31
0.0
100
AcDbText
  0
TEXT
  5
481
330
444
100
AcDbEntity
  8
A
  6
FIN
 62
     1
100
AcDbText
 10
-15.41934776898029
 20
-23.54508147529466
 30
0.0
 40
1.512885498915399
  1
RD
 41
0.9200000000000001
  7
ARIAL
 72
     4
 11
-14.01515060618069
 21
-22.78863872583695
 31
0.0
100
AcDbText
  0
TEXT
  5
482
330
444
100
AcDbEntity
  8
A
  6
FIN
 62
     1
100
AcDbText
 10
-21.46331816647793
 20
-20.02890993625413
 30
0.0
 40
1.512885498915399
  1
Bus KNX
 41
0.9200000000000001
  7
ARIAL
 72
     4
 11
-17.51893877983093
 21
-19.28485096987077
 31
0.0
100
AcDbText
  0
ENDBLK
  5
484
330
444
100
AcDbEntity
  8
0
100
AcDbBlockEnd
  0
BLOCK
  5
5A2
330
497
100
AcDbEntity
  8
0
100
AcDbBlockBegin
  2
ALIM_U01_0_3_1
 70
     2
 10
0.0
 20
0.0
 30
0.0
  3
ALIM_U01_0_3_1
  1

  0
ATTDEF
  5
498
330
497
100
AcDbEntity
  8
A
  6
FIN
 62
     3
100
AcDbText
 10
-15.76704490184783
 20
-4.200791374154674
 30
0.0
 40
2.094764536959783
  1

 41
0.9200000000000001
  7
ARIAL
 72
     2
 11
-15.76704490184783
 21
-3.153409105674783
 31
0.0
100
AcDbAttributeDefinition
  3

  2
$NOMCOMP
 70
     0
 74
     2
  0
ATTDEF
  5
499
330
497
100
AcDbEntity
  8
A
  6
FIN
 62
     1
100
AcDbText
 10
-17.51893877983093
 20
-6.946259226202965
 30
0.0
 40
1.629261306524276
  1

 41
0.9200000000000001
  7
ARIAL
 72
     2
 11
-17.51893877983093
 21
-6.131628572940826
 31
0.0
100
AcDbAttributeDefinition
  3

  2
UEACPLA
 70
     0
 74
     2
  0
ATTDEF
  5
49A
330
497
100
AcDbEntity
  8
A
  6
FIN
 62
     1
100
AcDbText
 10
-17.51893877983093
 20
-9.574100043177605
 30
0.0
 40
1.629261306524276
  1

 41
0.9200000000000001
  7
ARIAL
 72
     2
 11
-17.51893877983093
 21
-8.759469389915466
 31
0.0
100
AcDbAttributeDefinition
  3

  2
USPLA
 70
     0
 74
     2
  0
ATTDEF
  5
49B
330
497
100
AcDbEntity
  8
A
  6
FIN
 62
     1
100
AcDbText
 10
-17.51893877983093
 20
-12.20194086015224
 30
0.0
 40
1.629261306524276
  1

 41
0.9200000000000001
  7
ARIAL
 72
     2
 11
-17.51893877983093
 21
-11.3873102068901
 31
0.0
100
AcDbAttributeDefinition
  3

  2
INS
 70
     0
 74
     2
  0
ATTDEF
  5
49C
330
497
100
AcDbEntity
  8
A
  6
FIN
 62
     3
100
AcDbText
 10
-15.76704490184783
 20
2.047213215237052
 30
0.0
 40
1.86201292174203
  1

 41
0.9200000000000001
  7
ARIAL
 72
     2
 11
-15.76704490184783
 21
2.978219676108068
 31
0.0
100
AcDbAttributeDefinition
  3

  2
$FONCTION
 70
     0
 74
     2
  0
ATTDEF
  5
49D
330
497
100
AcDbEntity
  8
A
  6
FIN
 62
     3
100
AcDbText
 10
-15.76704490184783
 20
-0.9310064608710154
 30
0.0
 40
1.86201292174203
  1

 41
0.9200000000000001
  7
ARIAL
 72
     2
 11
-15.76704490184783
 21
0.0
 31
0.0
100
AcDbAttributeDefinition
  3

  2
$LOCALISATION
 70
     0
 74
     2
  0
ATTDEF
  5
49E
330
497
100
AcDbEntity
  8
A
  6
FIN
 62
     1
100
AcDbText
 10
0.0
 20
-1.401515123270677
 30
0.0
 40
1.512885498915399
  1

 41
0.9200000000000001
  7
ARIAL
 72
     4
 11
0.0
 21
-1.401515123270677
 31
0.0
100
AcDbAttributeDefinition
  3

  2
$PL:1
 70
     0
 74
     2
  0
ATTDEF
  5
49F
330
497
100
AcDbEntity
  8
A
  6
FIN
 62
     1
100
AcDbText
 10
7.007575511932372
 20
-1.401515123270677
 30
0.0
 40
1.512885498915399
  1

 41
0.9200000000000001
  7
ARIAL
 72
     4
 11
7.007575511932372
 21
-1.401515123270677
 31
0.0
100
AcDbAttributeDefinition
  3

  2
$PL:2
 70
     0
 74
     2
  0
ATTDEF
  5
4A0
330
497
100
AcDbEntity
  8
A
  6
FIN
 62
     1
100
AcDbText
 10
7.007575094248324
 20
-15.59185651649125
 30
0.0
 40
1.512885498915399
  1

 41
0.9200000000000001
  7
ARIAL
 72
     4
 11
7.007575094248324
 21
-15.59185651649125
 31
0.0
100
AcDbAttributeDefinition
  3

  2
$PL:3
 70
     0
 74
     2
  0
ATTDEF
  5
4A1
330
497
100
AcDbEntity
  8
A
  6
FIN
 62
     1
100
AcDbText
 10
0.0
 20
-15.59185651649125
 30
0.0
 40
1.512885498915399
  1

 41
0.9200000000000001
  7
ARIAL
 72
     4
 11
0.0
 21
-15.59185651649125
 31
0.0
100
AcDbAttributeDefinition
  3

  2
$PL:4
 70
     0
 74
     2
  0
ATTDEF
  5
4A2
330
497
100
AcDbEntity
  8
A
  6
FIN
 62
     4
100
AcDbText
 10
-15.76704490184783
 20
-6.946259226202965
 30
0.0
 40
1.629261306524276
  1

 41
0.9200000000000001
  7
ARIAL
 72
     2
 11
-15.76704490184783
 21
-6.131628572940826
 31
0.0
100
AcDbAttributeDefinition
  3

  2
UNITE_UE
 70
     0
 74
     2
  0
ATTDEF
  5
4A3
330
497
100
AcDbEntity
  8
A
  6
FIN
 62
     4
100
AcDbText
 10
-15.76704490184783
 20
-9.574100043177605
 30
0.0
 40
1.629261306524276
  1

 41
0.9200000000000001
  7
ARIAL
 72
     2
 11
-15.76704490184783
 21
-8.759469389915466
 31
0.0
100
AcDbAttributeDefinition
  3

  2
UNITE_US
 70
     0
 74
     2
  0
ATTDEF
  5
4A4
330
497
100
AcDbEntity
  8
A
  6
FIN
 62
     4
100
AcDbText
 10
-15.76704490184783
 20
-12.20194086015224
 30
0.0
 40
1.629261306524276
  1

 41
0.9200000000000001
  7
ARIAL
 72
     2
 11
-15.76704490184783
 21
-11.3873102068901
 31
0.0
100
AcDbAttributeDefinition
  3

  2
UNITE_IS
 70
     0
 74
     2
  0
ATTDEF
  5
4A5
330
497
100
AcDbEntity
  8
A
  6
FIN
 62
     1
100
AcDbText
 10
-17.51893877983093
 20
-6.946259226202965
 30
0.0
 40
1.629261306524276
  1

 41
0.9200000000000001
  7
ARIAL
 72
     2
 11
-17.51893877983093
 21
-6.131628572940826
 31
0.0
100
AcDbAttributeDefinition
  3

  2
UEDCPLA
 70
     0
 74
     2
  0
ATTDEF
  5
4A6
330
497
100
AcDbEntity
  8
A
  6
FIN
 62
     1
100
AcDbText
 10
-6.657202082691582
 20
-12.90268771863382
 30
0.0
 40
1.629261306524276
  1

 41
0.9200000000000001
  7
ARIAL
 72
     2
 11
-6.657202082691582
 21
-12.08805706537169
 31
0.0
100
AcDbAttributeDefinition
  3

  2
$POS_REFCRO_1
 70
     0
 74
     2
  0
ATTDEF
  5
4A7
330
497
100
AcDbEntity
  8
A
  6
FIN
 62
     4
100
AcDbText
 10
-7.357948941173162
 20
-14.54069780183635
 30
0.0
 40
1.629261306524276
  1

 41
0.9200000000000001
  7
ARIAL
 72
     4
 11
-7.357948941173162
 21
-14.54069780183635
 31
0.0
100
AcDbAttributeDefinition
  3

  2
$INTER_CROREF_1
 70
     0
 74
     2
  0
LWPOLYLINE
  5
4A8
330
497
100
AcDbEntity
  8
A
  6
MOYEN
 62
     4
100
AcDbPolyline
 90
        3
 70
     0
 43
0.0
 10
-2.102272737116521
 20
-1.751893877983093
 10
-8.759469389915466
 20
-1.751893877983093
 10
-8.759469389915466
 20
-6.306818211349566
  0
LINE
  5
4AD
330
497
100
AcDbEntity
  8
A
  6
MOYEN
 62
     4
100
AcDbLine
 10
-8.759469389915466
 20
-15.76704490184783
 30
0.0
 11
15.76704490184783
 21
-1.751893877983093
 31
0.0
  0
LINE
  5
4AE
330
497
100
AcDbEntity
  8
A
  6
MOYEN
 62
     4
100
AcDbLine
 10
2.102272737116521
 20
-1.751893877983093
 30
0.0
 11
4.905302774815851
 21
-1.751893877983093
 31
0.0
  0
LINE
  5
4AF
330
497
100
AcDbEntity
  8
A
  6
MOYEN
 62
     4
100
AcDbLine
 10
-8.759469389915466
 20
-15.76704490184783
 30
0.0
 11
-2.102272737116521
 21
-15.76704490184783
 31
0.0
  0
LINE
  5
4B0
330
497
100
AcDbEntity
  8
A
  6
MOYEN
 62
     4
100
AcDbLine
 10
15.76704490184783
 20
-15.76704490184783
 30
0.0
 11
9.109848666732943
 21
-15.76704490184783
 31
0.0
  0
LINE
  5
4B1
330
497
100
AcDbEntity
  8
A
  6
MOYEN
 62
     4
100
AcDbLine
 10
4.905302774815851
 20
-15.76704490184783
 30
0.0
 11
2.102272737116521
 21
-15.76704490184783
 31
0.0
  0
LWPOLYLINE
  5
4B2
330
497
100
AcDbEntity
  8
A
  6
SYMBOL_C
 62
     4
100
AcDbPolyline
 90
        5
 70
     0
 43
0.0
 10
-2.102272737116521
 20
0.0
 10
-2.102272737116521
 20
-3.503787755966186
 10
2.102272737116521
 20
-3.503787755966186
 10
2.102272737116521
 20
0.0
 10
-2.102272737116521
 20
0.0
  0
LWPOLYLINE
  5
4B9
330
497
100
AcDbEntity
  8
A
  6
SYMBOL_C
 62
     4
100
AcDbPolyline
 90
        5
 70
     0
 43
0.0
 10
4.905302774815851
 20
0.0
 10
4.905302774815851
 20
-3.503787755966186
 10
9.109848666732943
 20
-3.503787755966186
 10
9.109848666732943
 20
0.0
 10
4.905302774815851
 20
0.0
  0
LWPOLYLINE
  5
4C0
330
497
100
AcDbEntity
  8
A
  6
SYMBOL_C
 62
     4
100
AcDbPolyline
 90
        5
 70
     0
 43
0.0
 10
-2.102272737116521
 20
-14.01515102386475
 10
-2.102272737116521
 20
-17.51893877983093
 10
2.102272737116521
 20
-17.51893877983093
 10
2.102272737116521
 20
-14.01515102386475
 10
-2.102272737116521
 20
-14.01515102386475
  0
LWPOLYLINE
  5
4C7
330
497
100
AcDbEntity
  8
A
  6
SYMBOL_C
 62
     4
100
AcDbPolyline
 90
        5
 70
     0
 43
0.0
 10
4.905302774815851
 20
-14.01515102386475
 10
4.905302774815851
 20
-17.51893877983093
 10
9.109848666732943
 20
-17.51893877983093
 10
9.109848666732943
 20
-14.01515102386475
 10
4.905302774815851
 20
-14.01515102386475
  0
LWPOLYLINE
  5
4CE
330
497
100
AcDbEntity
  8
A
  6
SYMBOL_C
 62
     4
100
AcDbPolyline
 90
        5
 70
     0
 43
0.0
 10
-10.86174338008414
 20
-6.306818629033613
 10
-10.86174170934793
 20
-10.51136326789856
 10
-7.007575511932372
 20
-10.51136326789856
 10
-7.007575511932372
 20
-6.306818211349566
 10
-10.86174338008414
 20
-6.306818629033613
  0
LINE
  5
4D5
330
497
100
AcDbEntity
  8
A
  6
CYAN
 62
     4
100
AcDbLine
 10
9.109848666732943
 20
-1.751893877983093
 30
0.0
 11
15.76704490184783
 21
-1.751893877983093
 31
0.0
  0
LINE
  5
4D6
330
497
100
AcDbEntity
  8
A
  6
CYAN
 62
     4
100
AcDbLine
 10
15.76704490184783
 20
-1.751893877983093
 30
0.0
 11
15.76704490184783
 21
-15.76704490184783
 31
0.0
  0
LINE
  5
4D7
330
497
100
AcDbEntity
  8
A
  6
CYAN
 62
     4
100
AcDbLine
 10
-8.759469389915466
 20
-10.51136326789856
 30
0.0
 11
-8.759469389915466
 21
-15.76704490184783
 31
0.0
  0
LINE
  5
4D8
330
497
100
AcDbEntity
  8
A
  6
VERT
 62
     3
100
AcDbLine
 10
-14.01515102386475
 20
-19.27083265781402
 30
0.0
 11
-14.01515102386475
 21
-21.02272653579712
 31
0.0
  0
LINE
  5
4D9
330
497
100
AcDbEntity
  8
A
  6
SYMBOL_P
 62
     3
100
AcDbLine
 10
0.0
 20
-17.51893877983093
 30
0.0
 11
0.0
 21
-19.27083265781402
 31
0.0
  0
LINE
  5
4DA
330
497
100
AcDbEntity
  8
A
  6
SYMBOL_P
 62
     3
100
AcDbLine
 10
0.0
 20
-19.27083265781402
 30
0.0
 11
-14.01515102386475
 21
-19.27083265781402
 31
0.0
  0
LINE
  5
4DB
330
497
100
AcDbEntity
  8
A
  6
SYMBOL_P
 62
     3
100
AcDbLine
 10
-14.01515102386475
 20
-19.27083265781402
 30
0.0
 11
-14.01515102386475
 21
-8.409090948466086
 31
0.0
  0
LINE
  5
4DC
330
497
100
AcDbEntity
  8
A
  6
SYMBOL_P
 62
     3
100
AcDbLine
 10
-14.01515102386475
 20
-8.409090948466086
 30
0.0
 11
-10.86174254471603
 21
-8.409090948466086
 31
0.0
  0
LWPOLYLINE
  5
4DD
330
497
100
AcDbEntity
  8
A
  6
MOYEN
 62
     4
100
AcDbPolyline
 90
       91
 70
     0
 43
0.0
 10
-3.503787755966186
 20
-8.058711671648607
 10
-3.480429193202895
 20
-7.997114134187882
 10
-3.457070630439602
 20
-7.936900801665955
 10
-3.433712067676311
 20
-7.878071674082832
 10
-3.410353504913018
 20
-7.820626751438509
 10
-3.386994942149727
 20
-7.76456603373299
 10
-3.363636379386435
 20
-7.709889520966271
 10
-3.340277816623142
 20
-7.656597213138354
 10
-3.316919253859851
 20
-7.60468911024924
 10
-3.293560691096558
 20
-7.554165212298926
 10
-3.270202128333266
 20
-7.505025519287414
 10
-3.246843565569975
 20
-7.457270031214704
 10
-3.223485002806683
 20
-7.410898748080798
 10
-3.200126440043391
 20
-7.365911669885691
 10
-3.176767877280098
 20
-7.322308796629386
 10
-3.153409314516806
 20
-7.280090128311883
 10
-3.130050751753515
 20
-7.239255664933183
 10
-3.106692188990223
 20
-7.199805406493282
 10
-3.083333626226931
 20
-7.161739352992186
 10
-3.059975063463638
 20
-7.125057504429889
 10
-3.036616500700346
 20
-7.089759860806395
 10
-3.013257937937055
 20
-7.055846422121703
 10
-2.989899375173763
 20
-7.023317188375813
 10
-2.966540812410471
 20
-6.992172577252772
 10
-2.94318224964718
 20
-6.962412171068535
 10
-2.919823686883887
 20
-6.934035969823099
 10
-2.896465124120596
 20
-6.907043973516465
 10
-2.873106561357303
 20
-6.881436182148632
 10
-2.849747998594011
 20
-6.857212595719602
 10
-2.82638943583072
 20
-6.834373214229371
 10
-2.803030873067428
 20
-6.812918037677945
 10
-2.779672310304135
 20
-6.792847066065319
 10
-2.756313747540843
 20
-6.774160299391497
 10
-2.732955184777551
 20
-6.756857737656473
 10
-2.709596622014259
 20
-6.740939380860254
 10
-2.686238059250968
 20
-6.726405229002835
 10
-2.662879496487676
 20
-6.713255282084218
 10
-2.639520933724384
 20
-6.701489540104403
 10
-2.616162370961091
 20
-6.691108003063391
 10
-2.592803808197799
 20
-6.682110670961179
 10
-2.569445245434508
 20
-6.674497543797769
 10
-2.546086682671215
 20
-6.668268621573162
 10
-2.522728119907923
 20
-6.663423904287355
 10
-2.499369557144631
 20
-6.659963391940352
 10
-2.476010994381339
 20
-6.657887084532148
 10
-2.452652431618048
 20
-6.657194982062747
 10
-2.429293868854756
 20
-6.657887084532148
 10
-2.405935306091464
 20
-6.659963391940352
 10
-2.382576743328173
 20
-6.663423904287355
 10
-2.359218180564881
 20
-6.668268621573162
 10
-2.335859617801588
 20
-6.674497543797769
 10
-2.312501055038296
 20
-6.682110670961179
 10
-2.289142492275004
 20
-6.691108003063391
 10
-2.265783929511712
 20
-6.701489540104403
 10
-2.24242536674842
 20
-6.713255282084218
 10
-2.219066803985128
 20
-6.726405229002835
 10
-2.195708241221836
 20
-6.740939380860254
 10
-2.172349678458544
 20
-6.756857737656473
 10
-2.148991115695253
 20
-6.774160299391497
 10
-2.12563255293196
 20
-6.792847066065319
 10
-2.102273990168669
 20
-6.812918037677945
 10
-2.078915427405377
 20
-6.834373214229371
 10
-2.055556864642084
 20
-6.857212595719602
 10
-2.032198301878793
 20
-6.881436182148632
 10
-2.0088397391155
 20
-6.907043973516465
 10
-1.985481176352208
 20
-6.934035969823099
 10
-1.962122613588917
 20
-6.962412171068535
 10
-1.938764050825625
 20
-6.992172577252772
 10
-1.915405488062334
 20
-7.023317188375813
 10
-1.892046925299041
 20
-7.055846422121703
 10
-1.868688362535749
 20
-7.089759860806395
 10
-1.845329799772457
 20
-7.125057504429889
 10
-1.821971237009165
 20
-7.161739352992186
 10
-1.798612674245873
 20
-7.199805406493282
 10
-1.775254111482581
 20
-7.239255664933183
 10
-1.751895548719289
 20
-7.280090128311883
 10
-1.728536985955997
 20
-7.322308796629386
 10
-1.705178423192706
 20
-7.365911669885691
 10
-1.681819860429413
 20
-7.410898748080798
 10
-1.658461297666121
 20
-7.457270031214704
 10
-1.63510273490283
 20
-7.505025519287414
 10
-1.611744172139538
 20
-7.554165212298926
 10
-1.588385609376245
 20
-7.60468911024924
 10
-1.565027046612954
 20
-7.656597213138354
 10
-1.541668483849661
 20
-7.709889520966271
 10
-1.51830992108637
 20
-7.76456603373299
 10
-1.494951358323078
 20
-7.820626751438509
 10
-1.471592795559786
 20
-7.878071674082832
 10
-1.448234232796494
 20
-7.936900801665955
 10
-1.424875670033201
 20
-7.997114134187882
 10
-1.401515123270677
 20
-8.058711671648607
  0
LWPOLYLINE
  5
53A
330
497
100
AcDbEntity
  8
A
  6
MOYEN
 62
     4
100
AcDbPolyline
 90
       91
 70
     0
 43
0.0
 10
-1.401515123270677
 20
-8.058711671648607
 10
-1.378156560507385
 20
-8.120309209109336
 10
-1.354797997744092
 20
-8.180522541631262
 10
-1.3314394349808
 20
-8.239351669214386
 10
-1.308080872217509
 20
-8.296796591858706
 10
-1.284722309454217
 20
-8.352857309564228
 10
-1.261363746690925
 20
-8.407533822330947
 10
-1.238005183927632
 20
-8.460826130158862
 10
-1.21464662116434
 20
-8.512734233047979
 10
-1.19128805840105
 20
-8.563258130998292
 10
-1.167929495637758
 20
-8.612397824009804
 10
-1.144570932874465
 20
-8.660153312082513
 10
-1.121212370111174
 20
-8.706524595216423
 10
-1.097853807347882
 20
-8.751511673411528
 10
-1.074495244584589
 20
-8.795114546667832
 10
-1.051136681821297
 20
-8.837333214985335
 10
-1.027778119058005
 20
-8.878167678364036
 10
-1.004419556294714
 20
-8.917617936803935
 10
-0.9810609935314218
 20
-8.955683990305033
 10
-0.95770243076813
 20
-8.992365838867328
 10
-0.9343438680048381
 20
-9.027663482490824
 10
-0.9109853052415457
 20
-9.061576921175515
 10
-0.887626742478254
 20
-9.094106154921407
 10
-0.864268179714962
 20
-9.125251183728494
 10
-0.8409096169516701
 20
-9.155012007596779
 10
-0.8175510541883781
 20
-9.183388626526264
 10
-0.7941924914250862
 20
-9.210381040516947
 10
-0.7708339286617943
 20
-9.235989249568831
 10
-0.7474753658985023
 20
-9.260213253681913
 10
-0.7241168031352104
 20
-9.283053052856187
 10
-0.7007582403719184
 20
-9.304508647091665
 10
-0.6773996776086264
 20
-9.32458003638834
 10
-0.6540411148453345
 20
-9.343267220746213
 10
-0.6306825520820425
 20
-9.360570200165284
 10
-0.6073239893187506
 20
-9.376488974645555
 10
-0.5839654265554586
 20
-9.391023544187019
 10
-0.5606068637921667
 20
-9.404173908789687
 10
-0.5372483010288747
 20
-9.415940068453553
 10
-0.5138897382655827
 20
-9.426322023178613
 10
-0.4905311755022909
 20
-9.435319772964874
 10
-0.4671726127389988
 20
-9.442933317812331
 10
-0.4438140499757068
 20
-9.449162657720989
 10
-0.4204554611071618
 20
-9.454007792690843
 10
-0.3970968722386168
 20
-9.4574687227219
 10
-0.3737382833700718
 20
-9.459545447814152
 10
-0.3503796945015267
 20
-9.460237967967598
 10
-0.3270211056329817
 20
-9.459545447814152
 10
-0.3036625167644367
 20
-9.4574687227219
 10
-0.2803039278958917
 20
-9.454007792690843
 10
-0.2569453390273466
 20
-9.449162657720989
 10
-0.2335867501588016
 20
-9.442933317812331
 10
-0.2102281612902566
 20
-9.435319772964874
 10
-0.1868695724217115
 20
-9.426322023178613
 10
-0.1635109835531665
 20
-9.415940068453553
 10
-0.1401523946846215
 20
-9.404173908789687
 10
-0.1167938058160765
 20
-9.391023544187019
 10
-0.0934352169475314
 20
-9.376488974645555
 10
-0.0700766280789864
 20
-9.360570200165284
 10
-0.0467180392104414
 20
-9.343267220746213
 10
-0.0233594519734747
 20
-9.32458003638834
 10
-0.000000864736508
 20
-9.304508647091665
 10
0.0233577225004588
 20
-9.283053052856187
 10
0.0467163097374255
 20
-9.260213253681913
 10
0.0700748986059705
 20
-9.235989249568831
 10
0.0934334874745155
 20
-9.210381040516947
 10
0.1167920698167473
 20
-9.183388626526264
 10
0.1401506586852923
 20
-9.155012007596779
 10
0.1635092475538373
 20
-9.125251183728494
 10
0.1868678364223824
 20
-9.094106154921407
 10
0.2102264252909274
 20
-9.061576921175515
 10
0.2335850011068459
 20
-9.027663482490824
 10
0.2569435899753909
 20
-8.992365838867328
 10
0.2803021788439359
 20
-8.955683990305033
 10
0.303660767712481
 20
-8.917617936803935
 10
0.327019356581026
 20
-8.878167678364036
 10
0.350377945449571
 20
-8.837333214985335
 10
0.373736534318116
 20
-8.795114546667832
 10
0.3970951231866611
 20
-8.751511673411528
 10
0.4204537120552061
 20
-8.706524595216423
 10
0.4438122748184982
 20
-8.660153312082513
 10
0.46717083758179
 20
-8.612397824009804
 10
0.4905294003450821
 20
-8.563258130998292
 10
0.513887963108374
 20
-8.512734233047979
 10
0.5372465258716659
 20
-8.460826130158862
 10
0.5606050886349579
 20
-8.407533822330947
 10
0.5839636513982498
 20
-8.352857309564228
 10
0.6073222141615418
 20
-8.296796591858706
 10
0.6306807769248337
 20
-8.239351669214386
 10
0.6540393396881257
 20
-8.180522541631262
 10
0.6773979024514177
 20
-8.120309209109336
 10
0.7007575616353386
 20
-8.058711671648607
  0
LINE
  5
597
330
497
100
AcDbEntity
  8
A
  6
MOYEN
 62
     4
100
AcDbLine
 10
8.058711671648607
 20
-9.109848666732943
 30
0.0
 11
11.21212098616542
 21
-9.109848666732943
 31
0.0
  0
LINE
  5
598
330
497
100
AcDbEntity
  8
A
  6
MOYEN
 62
     4
100
AcDbLine
 10
8.058711671648607
 20
-10.51136326789856
 30
0.0
 11
11.21212098616542
 21
-10.51136326789856
 31
0.0
  0
LWPOLYLINE
  5
599
330
497
100
AcDbEntity
  8
A
  6
CYAN
 62
     4
100
AcDbPolyline
 90
        5
 70
     0
 43
0.0
 10
11.21212098616542
 20
-12.61363642269913
 10
14.01515102386475
 20
-12.61363642269913
 10
14.01515102386475
 20
-14.71590957749969
 10
11.21212098616542
 20
-14.71590957749969
 10
11.21212098616542
 20
-12.61363642269913
  0
LINE
  5
5A0
330
497
100
AcDbEntity
  8
A
  6
CYAN
 62
     4
100
AcDbLine
 10
10.51136326789856
 20
-13.66477258241536
 30
0.0
 11
14.71590957749969
 21
-13.66477258241536
 31
0.0
  0
TEXT
  5
5A1
330
497
100
AcDbEntity
  8
A
  6
FIN
 62
     1
100
AcDbText
 10
-8.425607956295937
 20
-9.255860880906119
 30
0.0
 40
1.396509691306523
  1
PE
 50
90.0
 41
0.9200000000000001
  7
ARIAL
 72
     4
 11
-9.123862801949199
 21
-8.058711045122535
 31
0.0
100
AcDbText
  0
ENDBLK
  5
5A3
330
497
100
AcDbEntity
  8
0
100
AcDbBlockEnd
  0
ENDSEC
  0
SECTION
  2
ENTITIES
  0
INSERT
  5
CB
330
1F
100
AcDbEntity
  8
A
  6
FIN
 62
     0
100
AcDbBlockReference
  2
14
 10
0.0
 20
0.0
 30
0.0
  0
TEXT
  5
CC
330
1F
100
AcDbEntity
  8
A
  6
FIN
 62
     7
100
AcDbText
 10
265.3862031278786
 20
1.161709504600529
 30
0.0
 40
1.992857142857142
  1
FOLIO:
 41
0.9200000000000001
  7
ARIAL
 72
     4
 11
269.5845794677733
 21
2.158817768096924
 31
0.0
100
AcDbText
  0
TEXT
  5
CD
330
1F
100
AcDbEntity
  8
A
  6
FIN
 62
     7
100
AcDbText
 10
281.3927282589705
 20
1.10391902923584
 30
0.0
 40
1.992857142857142
  1
1
 41
0.9200000000000001
  7
ARIAL
 72
     2
 11
282.8171997070313
 21
1.10391902923584
 31
0.0
100
AcDbText
  0
TEXT
  5
CE
330
1F
100
AcDbEntity
  8
A
  6
FIN
 62
     7
100
AcDbText
 10
283.6761474609375
 20
1.090788841247559
 30
0.0
 40
1.992857142857142
  1
/
 41
0.9200000000000001
  7
ARIAL
100
AcDbText
  0
TEXT
  5
CF
330
1F
100
AcDbEntity
  8
A
  6
FIN
 62
     7
100
AcDbText
 10
285.0936889648437
 20
1.161208152770995
 30
0.0
 40
1.992857142857142
  1
5
 41
0.9200000000000001
  7
ARIAL
100
AcDbText
  0
TEXT
  5
D0
330
1F
100
AcDbEntity
  8
A
  6
FIN
 62
     7
100
AcDbText
 10
141.6080932617188
 20
15.69452667236328
 30
0.0
 40
1.992857142857142
  1
Etabli par:
 41
0.9200000000000001
  7
ARIAL
100
AcDbText
  0
TEXT
  5
D1
330
1F
100
AcDbEntity
  8
A
  6
FIN
 62
     7
100
AcDbText
 10
213.0204533226892
 20
15.39131184148407
 30
0.0
 40
1.992857142857142
  1
SEE-PROJECT
 41
0.9200000000000001
  7
ARIAL
 72
     4
 11
221.9862442016601
 21
16.38842010498047
 31
0.0
100
AcDbText
  0
TEXT
  5
D2
330
1F
100
AcDbEntity
  8
A
  6
FIN
 62
     7
100
AcDbText
 10
172.2350921630859
 20
15.77711868286133
 30
0.0
 40
1.992857142857142
  1
Date :
 41
0.9200000000000001
  7
ARIAL
100
AcDbText
  0
TEXT
  5
D3
330
1F
100
AcDbEntity
  8
A
  6
FIN
 62
     7
100
AcDbText
 10
179.9422607421875
 20
15.48161888122559
 30
0.0
 40
1.992857142857142
  1
23/09/2008
 41
0.9200000000000001
  7
ARIAL
100
AcDbText
  0
TEXT
  5
D5
330
1F
100
AcDbEntity
  8
A
  6
FIN
 62
     7
100
AcDbText
 10
3.618400573730468
 20
3.265975952148437
 30
0.0
 40
3.321428571428572
  1
ALIMENTATION / DISTRIBUTION
 41
0.9200000000000001
  7
ARIAL
100
AcDbText
  0
TEXT
  5
D6
330
1F
100
AcDbEntity
  8
A
  6
FIN
 62
     7
100
AcDbText
 10
163.3501739501953
 20
10.57504653930664
 30
0.0
 40
1.992857142857142
  1
Modifications
 41
0.9200000000000001
  7
ARIAL
100
AcDbText
  0
TEXT
  5
D7
330
1F
100
AcDbEntity
  8
A
  6
FIN
 62
     7
100
AcDbText
 10
209.9400634765625
 20
10.40599346160889
 30
0.0
 40
1.992857142857142
  1
Date
 41
0.9200000000000001
  7
ARIAL
100
AcDbText
  0
TEXT
  5
D8
330
1F
100
AcDbEntity
  8
A
  6
FIN
 62
     7
100
AcDbText
 10
225.3760223388671
 20
10.5940065383911
 30
0.0
 40
1.992857142857142
  1
Etabli par
 41
0.9200000000000001
  7
ARIAL
100
AcDbText
  0
TEXT
  5
D9
330
1F
100
AcDbEntity
  8
A
  6
FIN
 62
     7
100
AcDbText
 10
141.2790985107421
 20
7.872970581054687
 30
0.0
 40
1.328571428571428
  1
Edition originale
 41
0.9200000000000001
  7
ARIAL
100
AcDbText
  0
TEXT
  5
DA
330
1F
100
AcDbEntity
  8
A
  6
FIN
 62
     7
100
AcDbText
 10
206.1279602050781
 20
7.8822603225708
 30
0.0
 40
1.328571428571428
  1
23/09/2008
 41
0.9200000000000001
  7
ARIAL
100
AcDbText
  0
TEXT
  5
DB
330
1F
100
AcDbEntity
  8
A
  6
FIN
 62
     7
100
AcDbText
 10
224.9320068359375
 20
7.8822603225708
 30
0.0
 40
1.328571428571428
  1
CB
 41
0.9200000000000001
  7
ARIAL
100
AcDbText
  0
TEXT
  5
DC
330
1F
100
AcDbEntity
  8
A
  6
FIN
 62
     7
100
AcDbText
 10
141.2750091552734
 20
5.451072692871093
 30
0.0
 40
1.328571428571428
  1
Modification circuit chauffage
 41
0.9200000000000001
  7
ARIAL
100
AcDbText
  0
TEXT
  5
DD
330
1F
100
AcDbEntity
  8
A
  6
FIN
 62
     7
100
AcDbText
 10
206.1238708496094
 20
5.460361480712891
 30
0.0
 40
1.328571428571428
  1
17/10/2008
 41
0.9200000000000001
  7
ARIAL
100
AcDbText
  0
TEXT
  5
DE
330
1F
100
AcDbEntity
  8
A
  6
FIN
 62
     7
100
AcDbText
 10
224.9279174804688
 20
5.460361480712891
 30
0.0
 40
1.328571428571428
  1
CB
 41
0.9200000000000001
  7
ARIAL
100
AcDbText
  0
TEXT
  5
DF
330
1F
100
AcDbEntity
  8
A
  6
FIN
 62
     7
100
AcDbText
 10
141.2959594726563
 20
2.898968696594238
 30
0.0
 40
1.328571428571428
  1
Modification sorties
 41
0.9200000000000001
  7
ARIAL
100
AcDbText
  0
TEXT
  5
E0
330
1F
100
AcDbEntity
  8
A
  6
FIN
 62
     7
100
AcDbText
 10
206.1448211669921
 20
2.908257484436035
 30
0.0
 40
1.328571428571428
  1
15/01/2009
 41
0.9200000000000001
  7
ARIAL
100
AcDbText
  0
TEXT
  5
E1
330
1F
100
AcDbEntity
  8
A
  6
FIN
 62
     7
100
AcDbText
 10
224.9488525390625
 20
2.908257484436035
 30
0.0
 40
1.328571428571428
  1
FA
 41
0.9200000000000001
  7
ARIAL
100
AcDbText
  0
LINE
  5
E2
330
1F
100
AcDbEntity
  8
A
  6
JAUNE
 62
     2
100
AcDbLine
 10
224.2424163818359
 20
30.51136326789856
 30
0.0
 11
224.2424163818359
 21
48.03030204772949
 31
0.0
  0
TEXT
  5
E3
330
1F
100
AcDbEntity
  8
A
  6
FIN
 62
     4
100
AcDbText
 10
222.8426737584332
 20
44.2152129755708
 30
0.0
 40
1.163758076088768
  1
-
 50
90.0
 41
1.149999999999999
  7
ARIAL
 72
     4
 11
222.7708319399571
 21
44.52651429176331
 31
0.0
100
AcDbText
  0
LINE
  5
E4
330
1F
100
AcDbEntity
  8
A
  6
POINT
 62
     3
100
AcDbLine
 10
3.503787755966186
 20
174.1666612625121
 30
0.0
 11
3.503787755966186
 21
202.1969633102417
 31
0.0
  0
LINE
  5
E5
330
1F
100
AcDbEntity
  8
A
  6
BLEU
 62
     5
100
AcDbLine
 10
28.03030204772948
 20
184.6780245304108
 30
0.0
 11
28.03030204772948
 21
188.1818122863769
 31
0.0
  0
LINE
  5
E6
330
1F
100
AcDbEntity
  8
A
  6
BLEU
 62
     5
100
AcDbLine
 10
269.7916572093964
 20
125.1136326789856
 30
0.0
 11
269.7916572093964
 21
128.6174204349518
 31
0.0
  0
HATCH
  5
E7
330
1F
100
AcDbEntity
  8
A
  6
BLEU
 62
     5
100
AcDbHatch
 10
0.0
 20
0.0
 30
0.0
210
0.0
220
0.0
230
1.0
  2
SOLID
 70
     1
 71
     0
 91
        1
 92
        0
 93
        1
 72
     2
 10
140.1515102386474
 20
163.6552979946136
 40
0.6499999761581421
 50
0.0
 51
360.0
 73
     1
 97
        0
 75
     0
 76
     1
 98
        0
  0
LINE
  5
E8
330
1F
100
AcDbEntity
  8
A
  6
BLEU
 62
     5
100
AcDbLine
 10
140.801510208107
 20
163.6552979946136
 30
0.0
 11
168.1818122863769
 21
163.6552979946136
 31
0.0
  0
TEXT
  5
E9
330
1F
100
AcDbEntity
  8
A
  6
FIN
 62
     4
100
AcDbText
 10
152.6069661896948
 20
164.5525448048075
 30
0.0
 40
1.163758076088768
  1
105
 41
1.149999999999999
  7
ARIAL
 72
     4
 11
154.1666679454569
 21
165.1268824364925
 31
0.0
100
AcDbText
  0
LINE
  5
EA
330
1F
100
AcDbEntity
  8
A
  6
BLEU
 62
     5
100
AcDbLine
 10
63.06817960739135
 20
37.51893877983092
 30
0.0
 11
63.06817960739135
 21
55.03787755966186
 31
0.0
  0
TEXT
  5
EB
330
1F
100
AcDbEntity
  8
A
  6
FIN
 62
     4
100
AcDbText
 10
62.17092611425279
 20
44.71870641398425
 30
0.0
 40
1.163758076088768
  1
116
 50
90.0
 41
1.149999999999999
  7
ARIAL
 72
     4
 11
61.59658848256778
 21
46.27840816974639
 31
0.0
100
AcDbText
  0
HATCH
  5
EC
330
1F
100
AcDbEntity
  8
A
  6
BLEU
 62
     5
100
AcDbHatch
 10
0.0
 20
0.0
 30
0.0
210
0.0
220
0.0
230
1.0
  2
SOLID
 70
     1
 71
     0
 91
        1
 92
        0
 93
        1
 72
     2
 10
168.1818122863769
 20
128.6174204349518
 40
0.6499999761581421
 50
0.0
 51
360.0
 73
     1
 97
        0
 75
     0
 76
     1
 98
        0
  0
LINE
  5
ED
330
1F
100
AcDbEntity
  8
A
  6
BLEU
 62
     5
100
AcDbLine
 10
168.1818122863769
 20
129.2674204044113
 30
0.0
 11
168.1818122863769
 21
146.1363592147827
 31
0.0
  0
TEXT
  5
EE
330
1F
100
AcDbEntity
  8
A
  6
FIN
 62
     4
100
AcDbText
 10
167.284168560059
 20
134.0653008740667
 30
0.0
 40
1.163758076088768
  1
123
 50
90.0
 41
1.149999999999999
  7
ARIAL
 72
     4
 11
166.7102278444982
 21
135.6250026298289
 31
0.0
100
AcDbText
  0
LINE
  5
EF
330
1F
100
AcDbEntity
  8
A
  6
BLEU
 62
     5
100
AcDbLine
 10
21.02272653579712
 20
104.0909061431884
 30
0.0
 11
52.55681633949279
 21
104.0909061431884
 31
0.0
  0
TEXT
  5
F0
330
1F
100
AcDbEntity
  8
A
  6
FIN
 62
     4
100
AcDbText
 10
40.48364952969689
 20
104.988159636327
 30
0.0
 40
1.163758076088768
  1
106
 41
1.149999999999999
  7
ARIAL
 72
     4
 11
42.04335128545904
 21
105.562497268012
 31
0.0
100
AcDbText
  0
LINE
  5
F1
330
1F
100
AcDbEntity
  8
A
  6
BLEU
 62
     5
100
AcDbLine
 10
14.01515102386475
 20
100.5871183872222
 30
0.0
 11
94.60226941108706
 21
100.5871183872222
 31
0.0
  0
TEXT
  5
F2
330
1F
100
AcDbEntity
  8
A
  6
FIN
 62
     4
100
AcDbText
 10
40.48364952969689
 20
101.4843718803608
 30
0.0
 40
1.163758076088768
  1
105
 41
1.149999999999999
  7
ARIAL
 72
     4
 11
42.04335128545904
 21
102.0587095120458
 31
0.0
100
AcDbText
  0
LINE
  5
F3
330
1F
100
AcDbEntity
  8
A
  6
POINT
 62
     3
100
AcDbLine
 10
182.1969633102417
 20
121.6098449230194
 30
0.0
 11
182.1969633102417
 21
125.1136326789856
 31
0.0
  0
HATCH
  5
F4
330
1F
100
AcDbEntity
  8
A
  6
BLEU
 62
     5
100
AcDbHatch
 10
0.0
 20
0.0
 30
0.0
210
0.0
220
0.0
230
1.0
  2
SOLID
 70
     1
 71
     0
 91
        1
 92
        0
 93
        1
 72
     2
 10
175.1893877983093
 20
132.1212081909179
 40
0.6499999761581421
 50
0.0
 51
360.0
 73
     1
 97
        0
 75
     0
 76
     1
 98
        0
  0
LINE
  5
F5
330
1F
100
AcDbEntity
  8
A
  6
BLEU
 62
     5
100
AcDbLine
 10
175.1893877983093
 20
121.6098449230194
 30
0.0
 11
175.1893877983093
 21
131.4712082214583
 31
0.0
  0
LINE
  5
F6
330
1F
100
AcDbEntity
  8
A
  6
JAUNE
 62
     2
100
AcDbLine
 10
210.2272653579711
 20
41.02272653579712
 30
0.0
 11
210.2272653579711
 21
48.03030204772949
 31
0.0
  0
TEXT
  5
F7
330
1F
100
AcDbEntity
  8
A
  6
FIN
 62
     4
100
AcDbText
 10
208.8275227345685
 20
44.2152129755708
 30
0.0
 40
1.163758076088768
  1
-
 50
90.0
 41
1.149999999999999
  7
ARIAL
 72
     4
 11
208.7556809160924
 21
44.52651429176331
 31
0.0
100
AcDbText
  0
LINE
  5
F8
330
1F
100
AcDbEntity
  8
A
  6
JAUNE
 62
     2
100
AcDbLine
 10
175.1893877983093
 20
72.55681633949279
 30
0.0
 11
175.1893877983093
 21
93.57954287528992
 31
0.0
  0
TEXT
  5
F9
330
1F
100
AcDbEntity
  8
A
  6
FIN
 62
     4
100
AcDbText
 10
173.7896451749066
 20
86.25926262875998
 30
0.0
 40
1.163758076088768
  1
-
 50
90.0
 41
1.149999999999999
  7
ARIAL
 72
     4
 11
173.7178033564305
 21
86.57056394495247
 31
0.0
100
AcDbText
  0
HATCH
  5
FA
330
1F
100
AcDbEntity
  8
A
  6
BLEU
 62
     5
100
AcDbHatch
 10
0.0
 20
0.0
 30
0.0
210
0.0
220
0.0
230
1.0
  2
SOLID
 70
     1
 71
     0
 91
        1
 92
        0
 93
        1
 72
     2
 10
147.1590857505798
 20
170.6628735065459
 40
0.6499999761581421
 50
0.0
 51
360.0
 73
     1
 97
        0
 75
     0
 76
     1
 98
        0
  0
LINE
  5
FB
330
1F
100
AcDbEntity
  8
A
  6
BLEU
 62
     5
100
AcDbLine
 10
147.8090857200394
 20
170.6628735065459
 30
0.0
 11
175.1893877983093
 21
170.6628735065459
 31
0.0
  0
TEXT
  5
FC
330
1F
100
AcDbEntity
  8
A
  6
FIN
 62
     4
100
AcDbText
 10
152.6069661896948
 20
171.5601203167397
 30
0.0
 40
1.163758076088768
  1
107
 41
1.149999999999999
  7
ARIAL
 72
     4
 11
154.1666679454569
 21
172.1344579484247
 31
0.0
100
AcDbText
  0
LINE
  5
FD
330
1F
100
AcDbEntity
  8
A
  6
BLEU
 62
     5
100
AcDbLine
 10
147.1590857505798
 20
153.143934726715
 30
0.0
 11
147.1590857505798
 21
170.0128735370865
 31
0.0
  0
LINE
  5
FE
330
1F
100
AcDbEntity
  8
A
  6
JAUNE
 62
     2
100
AcDbLine
 10
189.204538822174
 20
41.02272653579712
 30
0.0
 11
189.204538822174
 21
93.57954287528992
 31
0.0
  0
TEXT
  5
FF
330
1F
100
AcDbEntity
  8
A
  6
FIN
 62
     4
100
AcDbText
 10
187.8047961987714
 20
86.25716418409719
 30
0.0
 40
1.163758076088768
  1
-
 50
90.0
 41
1.149999999999999
  7
ARIAL
 72
     4
 11
187.7329543802952
 21
86.56846550028969
 31
0.0
100
AcDbText
  0
LINE
  5
100
330
1F
100
AcDbEntity
  8
A
  6
BLEU
 62
     5
100
AcDbLine
 10
276.7992327213286
 20
125.1136326789856
 30
0.0
 11
276.7992327213286
 21
132.1212081909179
 31
0.0
  0
LINE
  5
101
330
1F
100
AcDbEntity
  8
A
  6
BLEU
 62
     5
100
AcDbLine
 10
175.1893877983093
 20
132.7712081603775
 30
0.0
 11
175.1893877983093
 21
146.1363592147827
 31
0.0
  0
TEXT
  5
102
330
1F
100
AcDbEntity
  8
A
  6
FIN
 62
     4
100
AcDbText
 10
174.3020638912199
 20
134.0653008740667
 30
0.0
 40
1.163758076088768
  1
124
 50
90.0
 41
1.149999999999999
  7
ARIAL
 72
     4
 11
173.7178033564305
 21
135.6250026298289
 31
0.0
100
AcDbText
  0
HATCH
  5
103
330
1F
100
AcDbEntity
  8
A
  6
BLEU
 62
     5
100
AcDbHatch
 10
0.0
 20
0.0
 30
0.0
210
0.0
220
0.0
230
1.0
  2
SOLID
 70
     1
 71
     0
 91
        1
 92
        0
 93
        1
 72
     2
 10
101.6098449230194
 20
72.55681633949279
 40
0.6499999761581421
 50
0.0
 51
360.0
 73
     1
 97
        0
 75
     0
 76
     1
 98
        0
  0
LINE
  5
104
330
1F
100
AcDbEntity
  8
A
  6
BLEU
 62
     5
100
AcDbLine
 10
101.6098449230194
 20
73.20681630895234
 30
0.0
 11
101.6098449230194
 21
90.07575511932371
 31
0.0
  0
TEXT
  5
105
330
1F
100
AcDbEntity
  8
A
  6
FIN
 62
     4
100
AcDbText
 10
100.7125914298808
 20
85.01226560759539
 30
0.0
 40
1.163758076088768
  1
109
 50
90.0
 41
1.149999999999999
  7
ARIAL
 72
     4
 11
100.1382537981958
 21
86.57196736335754
 31
0.0
100
AcDbText
  0
LINE
  5
106
330
1F
100
AcDbEntity
  8
A
  6
JAUNE
 62
     2
100
AcDbLine
 10
203.2196898460388
 20
37.51893877983092
 30
0.0
 11
203.2196898460388
 21
48.03030204772949
 31
0.0
  0
TEXT
  5
107
330
1F
100
AcDbEntity
  8
A
  6
FIN
 62
     4
100
AcDbText
 10
202.1327171284881
 20
43.97989414536688
 30
0.0
 40
1.163758076088768
  1
+
 50
90.0
 41
1.149999999999999
  7
ARIAL
 72
     4
 11
201.74810540416
 21
44.52581258256077
 31
0.0
100
AcDbText
  0
LINE
  5
108
330
1F
100
AcDbEntity
  8
A
  6
JAUNE
 62
     2
100
AcDbLine
 10
182.1969633102417
 20
37.51893877983092
 30
0.0
 11
182.1969633102417
 21
93.57954287528992
 31
0.0
  0
TEXT
  5
109
330
1F
100
AcDbEntity
  8
A
  6
FIN
 62
     4
100
AcDbText
 10
181.109990592691
 20
86.02604892616366
 30
0.0
 40
1.163758076088768
  1
+
 50
90.0
 41
1.149999999999999
  7
ARIAL
 72
     4
 11
180.7253788683629
 21
86.57196736335754
 31
0.0
100
AcDbText
  0
LINE
  5
10A
330
1F
100
AcDbEntity
  8
A
  6
BLEU
 62
     5
100
AcDbLine
 10
42.04545307159424
 20
62.04545307159424
 30
0.0
 11
42.04545307159424
 21
79.56439185142517
 31
0.0
  0
TEXT
  5
10B
330
1F
100
AcDbEntity
  8
A
  6
FIN
 62
     4
100
AcDbText
 10
41.14819957845566
 20
63.98953907179829
 30
0.0
 40
1.163758076088768
  1
110
 50
90.0
 41
1.149999999999999
  7
ARIAL
 72
     4
 11
40.57386194677064
 21
65.54924082756044
 31
0.0
100
AcDbText
  0
LINE
  5
10C
330
1F
100
AcDbEntity
  8
A
  6
POINT
 62
     3
100
AcDbLine
 10
206.723477602005
 20
118.1060571670532
 30
0.0
 11
206.723477602005
 21
125.1136326789856
 31
0.0
  0
LINE
  5
10D
330
1F
100
AcDbEntity
  8
A
  6
BLEU
 62
     5
100
AcDbLine
 10
147.1590857505798
 20
111.0984816551209
 30
0.0
 11
147.1590857505798
 21
146.1363592147827
 31
0.0
  0
TEXT
  5
10E
330
1F
100
AcDbEntity
  8
A
  6
FIN
 62
     4
100
AcDbText
 10
146.2717618434904
 20
134.0653008740667
 30
0.0
 40
1.163758076088768
  1
122
 50
90.0
 41
1.149999999999999
  7
ARIAL
 72
     4
 11
145.687501308701
 21
135.6250026298289
 31
0.0
100
AcDbText
  0
LINE
  5
10F
330
1F
100
AcDbEntity
  8
A
  6
BLEU
 62
     5
100
AcDbLine
 10
168.1818122863769
 20
121.6098449230194
 30
0.0
 11
168.1818122863769
 21
127.9674204654922
 31
0.0
  0
LINE
  5
110
330
1F
100
AcDbEntity
  8
A
  6
BLEU
 62
     5
100
AcDbLine
 10
35.03787755966187
 20
195.1893877983093
 30
0.0
 11
35.03787755966187
 21
202.1969633102417
 31
0.0
  0
TEXT
  5
111
330
1F
100
AcDbEntity
  8
A
  6
FIN
 62
     4
100
AcDbText
 10
34.14062406652329
 20
197.1334804814581
 30
0.0
 40
1.163758076088768
  1
104
 50
90.0
 41
1.149999999999999
  7
ARIAL
 72
     4
 11
33.56628643483828
 21
198.6931822372202
 31
0.0
100
AcDbText
  0
LINE
  5
112
330
1F
100
AcDbEntity
  8
A
  6
BLEU
 62
     5
100
AcDbLine
 10
140.1515102386474
 20
111.0984816551209
 30
0.0
 11
140.1515102386474
 21
146.1363592147827
 31
0.0
  0
TEXT
  5
113
330
1F
100
AcDbEntity
  8
A
  6
FIN
 62
     4
100
AcDbText
 10
139.2641863315581
 20
134.0653008740667
 30
0.0
 40
1.163758076088768
  1
121
 50
90.0
 41
1.149999999999999
  7
ARIAL
 72
     4
 11
138.6799257967687
 21
135.6250026298289
 31
0.0
100
AcDbText
  0
LINE
  5
114
330
1F
100
AcDbEntity
  8
A
  6
JAUNE
 62
     2
100
AcDbLine
 10
168.1818122863769
 20
79.56439185142517
 30
0.0
 11
168.1818122863769
 21
93.57954287528992
 31
0.0
  0
TEXT
  5
115
330
1F
100
AcDbEntity
  8
A
  6
FIN
 62
     4
100
AcDbText
 10
167.0948395688263
 20
86.02604892616366
 30
0.0
 40
1.163758076088768
  1
+
 50
90.0
 41
1.149999999999999
  7
ARIAL
 72
     4
 11
166.7102278444982
 21
86.57196736335754
 31
0.0
100
AcDbText
  0
LINE
  5
116
330
1F
100
AcDbEntity
  8
A
  6
JAUNE
 62
     2
100
AcDbLine
 10
122.6325714588165
 20
79.56439185142517
 30
0.0
 11
122.6325714588165
 21
156.6477224826813
 31
0.0
  0
LINE
  5
117
330
1F
100
AcDbEntity
  8
A
  6
JAUNE
 62
     2
100
AcDbLine
 10
119.1287837028502
 20
72.55681633949279
 30
0.0
 11
119.1287837028502
 21
153.143934726715
 31
0.0
  0
LINE
  5
118
330
1F
100
AcDbEntity
  8
A
  6
BLEU
 62
     5
100
AcDbLine
 10
87.59469389915466
 20
83.06817960739136
 30
0.0
 11
87.59469389915466
 21
90.07575511932371
 31
0.0
  0
TEXT
  5
119
330
1F
100
AcDbEntity
  8
A
  6
FIN
 62
     4
100
AcDbText
 10
86.70736330912051
 20
85.01226560759539
 30
0.0
 40
1.163758076088768
  1
112
 50
90.0
 41
1.149999999999999
  7
ARIAL
 72
     4
 11
86.12310277433106
 21
86.57196736335754
 31
0.0
100
AcDbText
  0
LINE
  5
11A
330
1F
100
AcDbEntity
  8
A
  6
JAUNE
 62
     2
100
AcDbLine
 10
217.2348408699035
 20
30.51136326789856
 30
0.0
 11
217.2348408699035
 21
48.03030204772949
 31
0.0
  0
TEXT
  5
11B
330
1F
100
AcDbEntity
  8
A
  6
FIN
 62
     4
100
AcDbText
 10
216.1478681523529
 20
43.98059585456942
 30
0.0
 40
1.163758076088768
  1
+
 50
90.0
 41
1.149999999999999
  7
ARIAL
 72
     4
 11
215.7632564280248
 21
44.52651429176331
 31
0.0
100
AcDbText
  0
HATCH
  5
11C
330
1F
100
AcDbEntity
  8
A
  6
VIOLET
 62
     6
100
AcDbHatch
 10
0.0
 20
0.0
 30
0.0
210
0.0
220
0.0
230
1.0
  2
SOLID
 70
     1
 71
     0
 91
        1
 92
        0
 93
        1
 72
     2
 10
269.7916572093964
 20
41.02272653579712
 40
0.6499999761581421
 50
0.0
 51
360.0
 73
     1
 97
        0
 75
     0
 76
     1
 98
        0
  0
LINE
  5
11D
330
1F
100
AcDbEntity
  8
A
  6
VIOLET
 62
     6
100
AcDbLine
 10
269.7916572093964
 20
41.67272650525665
 30
0.0
 11
269.7916572093964
 21
107.5946938991547
 31
0.0
  0
TEXT
  5
11E
330
1F
100
AcDbEntity
  8
A
  6
FIN
 62
     6
100
AcDbText
 10
269.4071826008087
 20
95.08656487075167
 30
0.0
 40
1.86201292174203
  1
126
 50
90.0
 41
0.9200000000000001
  7
ARIAL
 72
     4
 11
268.4882423901127
 21
97.08298311812724
 31
0.0
100
AcDbText
  0
LINE
  5
11F
330
1F
100
AcDbEntity
  8
A
  6
BLEU
 62
     5
100
AcDbLine
 10
35.03787755966187
 20
62.04545307159424
 30
0.0
 11
35.03787755966187
 21
72.55681633949279
 31
0.0
  0
TEXT
  5
120
330
1F
100
AcDbEntity
  8
A
  6
FIN
 62
     4
100
AcDbText
 10
34.14062406652329
 20
63.98918821719701
 30
0.0
 40
1.163758076088768
  1
109
 50
90.0
 41
1.149999999999999
  7
ARIAL
 72
     4
 11
33.56628643483828
 21
65.54888997295916
 31
0.0
100
AcDbText
  0
LINE
  5
121
330
1F
100
AcDbEntity
  8
A
  6
BLEU
 62
     5
100
AcDbLine
 10
87.59469389915466
 20
37.51893877983092
 30
0.0
 11
87.59469389915466
 21
55.03787755966186
 31
0.0
  0
TEXT
  5
122
330
1F
100
AcDbEntity
  8
A
  6
FIN
 62
     4
100
AcDbText
 10
86.69744040601607
 20
44.71870641398425
 30
0.0
 40
1.163758076088768
  1
118
 50
90.0
 41
1.149999999999999
  7
ARIAL
 72
     4
 11
86.12310277433106
 21
46.27840816974639
 31
0.0
100
AcDbText
  0
LINE
  5
123
330
1F
100
AcDbEntity
  8
A
  6
BLEU
 62
     5
100
AcDbLine
 10
80.5871183872223
 20
37.51893877983092
 30
0.0
 11
80.5871183872223
 21
55.03787755966186
 31
0.0
  0
TEXT
  5
124
330
1F
100
AcDbEntity
  8
A
  6
FIN
 62
     4
100
AcDbText
 10
79.69978779718815
 20
44.71870641398425
 30
0.0
 40
1.163758076088768
  1
117
 50
90.0
 41
1.149999999999999
  7
ARIAL
 72
     4
 11
79.1155272623987
 21
46.27840816974639
 31
0.0
100
AcDbText
  0
HATCH
  5
125
330
1F
100
AcDbEntity
  8
A
  6
BLEU
 62
     5
100
AcDbHatch
 10
0.0
 20
0.0
 30
0.0
210
0.0
220
0.0
230
1.0
  2
SOLID
 70
     1
 71
     0
 91
        1
 92
        0
 93
        1
 72
     2
 10
73.57954287528993
 20
79.56439185142517
 40
0.6499999761581421
 50
0.0
 51
360.0
 73
     1
 97
        0
 75
     0
 76
     1
 98
        0
  0
LINE
  5
126
330
1F
100
AcDbEntity
  8
A
  6
BLEU
 62
     5
100
AcDbLine
 10
87.59469389915466
 20
79.56439185142517
 30
0.0
 11
74.22954284474944
 21
79.56439185142517
 31
0.0
  0
HATCH
  5
127
330
1F
100
AcDbEntity
  8
A
  6
BLEU
 62
     5
100
AcDbHatch
 10
0.0
 20
0.0
 30
0.0
210
0.0
220
0.0
230
1.0
  2
SOLID
 70
     1
 71
     0
 91
        1
 92
        0
 93
        1
 72
     2
 10
80.5871183872223
 20
72.55681633949279
 40
0.6499999761581421
 50
0.0
 51
360.0
 73
     1
 97
        0
 75
     0
 76
     1
 98
        0
  0
LINE
  5
128
330
1F
100
AcDbEntity
  8
A
  6
BLEU
 62
     5
100
AcDbLine
 10
81.23711835668181
 20
72.55681633949279
 30
0.0
 11
100.9598449535599
 21
72.55681633949279
 31
0.0
  0
LINE
  5
129
330
1F
100
AcDbEntity
  8
A
  6
BLEU
 62
     5
100
AcDbLine
 10
80.5871183872223
 20
62.04545307159424
 30
0.0
 11
80.5871183872223
 21
71.90681637003327
 31
0.0
  0
TEXT
  5
12A
330
1F
100
AcDbEntity
  8
A
  6
FIN
 62
     4
100
AcDbText
 10
79.68986489408371
 20
63.98918821719701
 30
0.0
 40
1.163758076088768
  1
109
 50
90.0
 41
1.149999999999999
  7
ARIAL
 72
     4
 11
79.1155272623987
 21
65.54888997295916
 31
0.0
100
AcDbText
  0
LINE
  5
12B
330
1F
100
AcDbEntity
  8
A
  6
BLEU
 62
     5
100
AcDbLine
 10
108.6174204349517
 20
62.04545307159424
 30
0.0
 11
108.6174204349517
 21
83.06817960739136
 31
0.0
  0
TEXT
  5
12C
330
1F
100
AcDbEntity
  8
A
  6
FIN
 62
     4
100
AcDbText
 10
107.7300898449176
 20
63.98813899486561
 30
0.0
 40
1.163758076088768
  1
112
 50
90.0
 41
1.149999999999999
  7
ARIAL
 72
     4
 11
107.1458293101282
 21
65.54784075062776
 31
0.0
100
AcDbText
  0
LINE
  5
12D
330
1F
100
AcDbEntity
  8
A
  6
BLEU
 62
     5
100
AcDbLine
 10
168.1818122863769
 20
153.143934726715
 30
0.0
 11
168.1818122863769
 21
163.6552979946136
 31
0.0
  0
LINE
  5
12E
330
1F
100
AcDbEntity
  8
A
  6
BLEU
 62
     5
100
AcDbLine
 10
108.6174204349517
 20
41.02272653579712
 30
0.0
 11
108.6174204349517
 21
55.03787755966186
 31
0.0
  0
TEXT
  5
12F
330
1F
100
AcDbEntity
  8
A
  6
FIN
 62
     4
100
AcDbText
 10
107.7201669418132
 20
46.47060029196734
 30
0.0
 40
1.163758076088768
  1
120
 50
90.0
 41
1.149999999999999
  7
ARIAL
 72
     4
 11
107.1458293101282
 21
48.03030204772949
 31
0.0
100
AcDbText
  0
LINE
  5
130
330
1F
100
AcDbEntity
  8
A
  6
BLEU
 62
     5
100
AcDbLine
 10
101.6098449230194
 20
41.02272653579712
 30
0.0
 11
101.6098449230194
 21
55.03787755966186
 31
0.0
  0
TEXT
  5
131
330
1F
100
AcDbEntity
  8
A
  6
FIN
 62
     4
100
AcDbText
 10
100.7125914298808
 20
46.47060029196734
 30
0.0
 40
1.163758076088768
  1
119
 50
90.0
 41
1.149999999999999
  7
ARIAL
 72
     4
 11
100.1382537981958
 21
48.03030204772949
 31
0.0
100
AcDbText
  0
LINE
  5
132
330
1F
100
AcDbEntity
  8
A
  6
BLEU
 62
     5
100
AcDbLine
 10
63.06817960739135
 20
62.04545307159424
 30
0.0
 11
63.06817960739135
 21
79.56439185142517
 31
0.0
  0
TEXT
  5
133
330
1F
100
AcDbEntity
  8
A
  6
FIN
 62
     4
100
AcDbText
 10
62.18084901735722
 20
63.98953907179829
 30
0.0
 40
1.163758076088768
  1
111
 50
90.0
 41
1.149999999999999
  7
ARIAL
 72
     4
 11
61.59658848256778
 21
65.54924082756044
 31
0.0
100
AcDbText
  0
LINE
  5
134
330
1F
100
AcDbEntity
  8
A
  6
BLEU
 62
     5
100
AcDbLine
 10
101.6098449230194
 20
62.04545307159424
 30
0.0
 11
101.6098449230194
 21
71.90681637003327
 31
0.0
  0
TEXT
  5
135
330
1F
100
AcDbEntity
  8
A
  6
FIN
 62
     4
100
AcDbText
 10
100.7125914298808
 20
63.98918821719701
 30
0.0
 40
1.163758076088768
  1
109
 50
90.0
 41
1.149999999999999
  7
ARIAL
 72
     4
 11
100.1382537981958
 21
65.54888997295916
 31
0.0
100
AcDbText
  0
LINE
  5
136
330
1F
100
AcDbEntity
  8
A
  6
BLEU
 62
     5
100
AcDbLine
 10
94.60226941108706
 20
100.5871183872222
 30
0.0
 11
94.60226941108706
 21
118.1060571670532
 31
0.0
  0
LINE
  5
137
330
1F
100
AcDbEntity
  8
A
  6
BLEU
 62
     5
100
AcDbLine
 10
66.57196736335753
 20
107.5946938991547
 30
0.0
 11
66.57196736335753
 21
118.1060571670532
 31
0.0
  0
LINE
  5
138
330
1F
100
AcDbEntity
  8
A
  6
BLEU
 62
     5
100
AcDbLine
 10
80.5871183872223
 20
111.0984816551209
 30
0.0
 11
80.5871183872223
 21
118.1060571670532
 31
0.0
  0
LINE
  5
139
330
1F
100
AcDbEntity
  8
A
  6
BLEU
 62
     5
100
AcDbLine
 10
87.59469389915466
 20
97.08333063125609
 30
0.0
 11
87.59469389915466
 21
118.1060571670532
 31
0.0
  0
TEXT
  5
13A
330
1F
100
AcDbEntity
  8
A
  6
FIN
 62
     4
100
AcDbText
 10
86.70736330912051
 20
102.5305026782238
 30
0.0
 40
1.163758076088768
  1
112
 50
90.0
 41
1.149999999999999
  7
ARIAL
 72
     4
 11
86.12310277433106
 21
104.0902044339859
 31
0.0
100
AcDbText
  0
LINE
  5
13B
330
1F
100
AcDbEntity
  8
A
  6
BLEU
 62
     5
100
AcDbLine
 10
52.55681633949279
 20
104.0909061431884
 30
0.0
 11
52.55681633949279
 21
118.1060571670532
 31
0.0
  0
HATCH
  5
13C
330
1F
100
AcDbEntity
  8
A
  6
BLEU
 62
     5
100
AcDbHatch
 10
0.0
 20
0.0
 30
0.0
210
0.0
220
0.0
230
1.0
  2
SOLID
 70
     1
 71
     0
 91
        1
 92
        0
 93
        1
 72
     2
 10
56.06060409545897
 20
72.55681633949279
 40
0.6499999761581421
 50
0.0
 51
360.0
 73
     1
 97
        0
 75
     0
 76
     1
 98
        0
  0
LINE
  5
13D
330
1F
100
AcDbEntity
  8
A
  6
BLEU
 62
     5
100
AcDbLine
 10
56.71060406491853
 20
72.55681633949279
 30
0.0
 11
79.93711841776274
 21
72.55681633949279
 31
0.0
  0
LINE
  5
13E
330
1F
100
AcDbEntity
  8
A
  6
JAUNE
 62
     2
100
AcDbLine
 10
73.57954287528993
 20
146.1363592147827
 30
0.0
 11
73.57954287528993
 21
153.143934726715
 31
0.0
  0
TEXT
  5
13F
330
1F
100
AcDbEntity
  8
A
  6
FIN
 62
     4
100
AcDbText
 10
72.17979356894247
 20
149.3288389716115
 30
0.0
 40
1.163758076088768
  1
-
 50
90.0
 41
1.149999999999999
  7
ARIAL
 72
     4
 11
72.10795175046633
 21
149.640140287804
 31
0.0
100
AcDbText
  0
HATCH
  5
140
330
1F
100
AcDbEntity
  8
A
  6
VIOLET
 62
     6
100
AcDbHatch
 10
0.0
 20
0.0
 30
0.0
210
0.0
220
0.0
230
1.0
  2
SOLID
 70
     1
 71
     0
 91
        1
 92
        0
 93
        1
 72
     2
 10
276.7992327213286
 20
37.51893877983092
 40
0.6499999761581421
 50
0.0
 51
360.0
 73
     1
 97
        0
 75
     0
 76
     1
 98
        0
  0
LINE
  5
141
330
1F
100
AcDbEntity
  8
A
  6
VIOLET
 62
     6
100
AcDbLine
 10
276.7992327213286
 20
27.00757551193237
 30
0.0
 11
276.7992327213286
 21
36.86893881037139
 31
0.0
  0
TEXT
  5
142
330
1F
100
AcDbEntity
  8
A
  6
FIN
 62
     6
100
AcDbText
 10
276.4147581127409
 20
28.51459416592174
 30
0.0
 40
1.86201292174203
  1
125
 50
90.0
 41
0.9200000000000001
  7
ARIAL
 72
     4
 11
275.4958179020449
 21
30.51101241329729
 31
0.0
100
AcDbText
  0
LINE
  5
143
330
1F
100
AcDbEntity
  8
A
  6
VIOLET
 62
     6
100
AcDbLine
 10
269.7916572093964
 20
27.00757551193237
 30
0.0
 11
269.7916572093964
 21
40.37272656633757
 31
0.0
  0
TEXT
  5
144
330
1F
100
AcDbEntity
  8
A
  6
FIN
 62
     6
100
AcDbText
 10
269.4071826008087
 20
28.514945020523
 30
0.0
 40
1.86201292174203
  1
126
 50
90.0
 41
0.9200000000000001
  7
ARIAL
 72
     4
 11
268.4882423901127
 21
30.51136326789856
 31
0.0
100
AcDbText
  0
LINE
  5
145
330
1F
100
AcDbEntity
  8
A
  6
VIOLET
 62
     6
100
AcDbLine
 10
259.2802939414978
 20
41.02272653579712
 30
0.0
 11
259.2802939414978
 21
48.03030204772949
 31
0.0
  0
LINE
  5
147
330
1F
100
AcDbEntity
  8
A
  6
VIOLET
 62
     6
100
AcDbLine
 10
252.2727184295654
 20
37.51893877983092
 30
0.0
 11
276.1492327518691
 21
37.51893877983092
 31
0.0
  0
LINE
  5
148
330
1F
100
AcDbEntity
  8
A
  6
VIOLET
 62
     6
100
AcDbLine
 10
252.2727184295654
 20
37.51893877983092
 30
0.0
 11
252.2727184295654
 21
48.03030204772949
 31
0.0
  0
LINE
  5
14A
330
1F
100
AcDbEntity
  8
A
  6
VIOLET
 62
     6
100
AcDbLine
 10
276.7992327213286
 20
38.16893874929047
 30
0.0
 11
276.7992327213286
 21
107.5946938991547
 31
0.0
  0
TEXT
  5
14B
330
1F
100
AcDbEntity
  8
A
  6
FIN
 62
     6
100
AcDbText
 10
276.4147581127409
 20
95.08691238388053
 30
0.0
 40
1.86201292174203
  1
125
 50
90.0
 41
0.9200000000000001
  7
ARIAL
 72
     4
 11
275.4958179020449
 21
97.08333063125609
 31
0.0
100
AcDbText
  0
LINE
  5
14C
330
1F
100
AcDbEntity
  8
A
  6
VIOLET
 62
     6
100
AcDbLine
 10
259.2802939414978
 20
41.02272653579712
 30
0.0
 11
269.1416572399368
 21
41.02272653579712
 31
0.0
  0
LINE
  5
14D
330
1F
100
AcDbEntity
  8
A
  6
JAUNE
 62
     2
100
AcDbLine
 10
168.1818122863769
 20
79.56439185142517
 30
0.0
 11
122.6325714588165
 21
79.56439185142517
 31
0.0
  0
TEXT
  5
14E
330
1F
100
AcDbEntity
  8
A
  6
FIN
 62
     4
100
AcDbText
 10
146.6103604765757
 20
80.65137125192066
 30
0.0
 40
1.163758076088768
  1
+
 41
1.149999999999999
  7
ARIAL
 72
     4
 11
147.1562789137696
 21
81.03598297624877
 31
0.0
100
AcDbText
  0
LINE
  5
14F
330
1F
100
AcDbEntity
  8
A
  6
BLEU
 62
     5
100
AcDbLine
 10
168.8318122558364
 20
128.6174204349518
 30
0.0
 11
269.7916572093964
 21
128.6174204349518
 31
0.0
  0
TEXT
  5
150
330
1F
100
AcDbEntity
  8
A
  6
FIN
 62
     4
100
AcDbText
 10
226.1858073557822
 20
129.5150708442145
 30
0.0
 40
1.163758076088768
  1
123
 41
1.149999999999999
  7
ARIAL
 72
     4
 11
227.7455091115444
 21
130.0890115597754
 31
0.0
100
AcDbText
  0
HATCH
  5
151
330
1F
100
AcDbEntity
  8
A
  6
BLEU
 62
     5
100
AcDbHatch
 10
0.0
 20
0.0
 30
0.0
210
0.0
220
0.0
230
1.0
  2
SOLID
 70
     1
 71
     0
 91
        1
 92
        0
 93
        1
 72
     2
 10
28.03030204772948
 20
170.6628735065459
 40
0.6499999761581421
 50
0.0
 51
360.0
 73
     1
 97
        0
 75
     0
 76
     1
 98
        0
  0
LINE
  5
152
330
1F
100
AcDbEntity
  8
A
  6
BLEU
 62
     5
100
AcDbLine
 10
28.68030201718903
 20
170.6628735065459
 30
0.0
 11
146.5090857811203
 21
170.6628735065459
 31
0.0
  0
TEXT
  5
153
330
1F
100
AcDbEntity
  8
A
  6
FIN
 62
     4
100
AcDbText
 10
50.98730402078479
 20
171.5601203167397
 30
0.0
 40
1.163758076088768
  1
107
 41
1.149999999999999
  7
ARIAL
 72
     4
 11
52.54700577654694
 21
172.1344579484247
 31
0.0
100
AcDbText
  0
LINE
  5
154
330
1F
100
AcDbEntity
  8
A
  6
JAUNE
 62
     2
100
AcDbLine
 10
189.204538822174
 20
41.02272653579712
 30
0.0
 11
210.2272653579711
 21
41.02272653579712
 31
0.0
  0
TEXT
  5
155
330
1F
100
AcDbEntity
  8
A
  6
FIN
 62
     4
100
AcDbText
 10
192.3956151605978
 20
42.42247584214456
 30
0.0
 40
1.163758076088768
  1
-
 41
1.149999999999999
  7
ARIAL
 72
     4
 11
192.7069164767903
 21
42.49431766062071
 31
0.0
100
AcDbText
  0
LINE
  5
156
330
1F
100
AcDbEntity
  8
A
  6
JAUNE
 62
     2
100
AcDbLine
 10
182.1969633102417
 20
37.51893877983092
 30
0.0
 11
203.2196898460388
 21
37.51893877983092
 31
0.0
  0
TEXT
  5
157
330
1F
100
AcDbEntity
  8
A
  6
FIN
 62
     4
100
AcDbText
 10
192.1624081409463
 20
38.60591818032641
 30
0.0
 40
1.163758076088768
  1
+
 41
1.149999999999999
  7
ARIAL
 72
     4
 11
192.7083265781402
 21
38.99052990465452
 31
0.0
100
AcDbText
  0
LINE
  5
158
330
1F
100
AcDbEntity
  8
A
  6
BLEU
 62
     5
100
AcDbLine
 10
175.8393877677689
 20
132.1212081909179
 30
0.0
 11
276.7992327213286
 21
132.1212081909179
 31
0.0
  0
TEXT
  5
159
330
1F
100
AcDbEntity
  8
A
  6
FIN
 62
     4
100
AcDbText
 10
226.1823054927143
 20
133.0085320980073
 30
0.0
 40
1.163758076088768
  1
124
 41
1.149999999999999
  7
ARIAL
 72
     4
 11
227.7420072484765
 21
133.5927926327967
 31
0.0
100
AcDbText
  0
LINE
  5
15A
330
1F
100
AcDbEntity
  8
A
  6
JAUNE
 62
     2
100
AcDbLine
 10
175.1893877983093
 20
72.55681633949279
 30
0.0
 11
119.1287837028502
 21
72.55681633949279
 31
0.0
  0
TEXT
  5
15B
330
1F
100
AcDbEntity
  8
A
  6
FIN
 62
     4
100
AcDbText
 10
146.8477777514426
 20
73.95656564584024
 30
0.0
 40
1.163758076088768
  1
-
 41
1.149999999999999
  7
ARIAL
 72
     4
 11
147.1590790676351
 21
74.02840746431639
 31
0.0
100
AcDbText
  0
LINE
  5
15C
330
1F
100
AcDbEntity
  8
A
  6
POINT
 62
     3
100
AcDbLine
 10
182.1969633102417
 20
125.1136326789856
 30
0.0
 11
206.723477602005
 21
125.1136326789856
 31
0.0
  0
HATCH
  5
15D
330
1F
100
AcDbEntity
  8
A
  6
BLEU
 62
     5
100
AcDbHatch
 10
0.0
 20
0.0
 30
0.0
210
0.0
220
0.0
230
1.0
  2
SOLID
 70
     1
 71
     0
 91
        1
 92
        0
 93
        1
 72
     2
 10
14.01515102386475
 20
163.6552979946136
 40
0.6499999761581421
 50
0.0
 51
360.0
 73
     1
 97
        0
 75
     0
 76
     1
 98
        0
  0
LINE
  5
15E
330
1F
100
AcDbEntity
  8
A
  6
BLEU
 62
     5
100
AcDbLine
 10
14.66515099332428
 20
163.6552979946136
 30
0.0
 11
139.5015102691879
 21
163.6552979946136
 31
0.0
  0
TEXT
  5
15F
330
1F
100
AcDbEntity
  8
A
  6
FIN
 62
     4
100
AcDbText
 10
50.99010751612252
 20
164.5525448048075
 30
0.0
 40
1.163758076088768
  1
105
 41
1.149999999999999
  7
ARIAL
 72
     4
 11
52.54980927188467
 21
165.1268824364925
 31
0.0
100
AcDbText
  0
LINE
  5
160
330
1F
100
AcDbEntity
  8
A
  6
BLEU
 62
     5
100
AcDbLine
 10
28.03030204772948
 20
107.5946938991547
 30
0.0
 11
28.03030204772948
 21
170.0128735370865
 31
0.0
  0
TEXT
  5
161
330
1F
100
AcDbEntity
  8
A
  6
FIN
 62
     4
100
AcDbText
 10
27.13304855459091
 20
130.5558994444803
 30
0.0
 40
1.163758076088768
  1
107
 50
90.0
 41
1.149999999999999
  7
ARIAL
 72
     4
 11
26.5587109229059
 21
132.1156012002425
 31
0.0
100
AcDbText
  0
LINE
  5
162
330
1F
100
AcDbEntity
  8
A
  6
BLEU
 62
     5
100
AcDbLine
 10
14.01515102386475
 20
100.5871183872222
 30
0.0
 11
14.01515102386475
 21
163.0052980251541
 31
0.0
  0
TEXT
  5
163
330
1F
100
AcDbEntity
  8
A
  6
FIN
 62
     4
100
AcDbText
 10
13.11789753072617
 20
130.561499752211
 30
0.0
 40
1.163758076088768
  1
105
 50
90.0
 41
1.149999999999999
  7
ARIAL
 72
     4
 11
12.54355989904116
 21
132.1212015079731
 31
0.0
100
AcDbText
  0
LINE
  5
164
330
1F
100
AcDbEntity
  8
A
  6
JAUNE
 62
     2
100
AcDbLine
 10
66.57196736335753
 20
146.1363592147827
 30
0.0
 11
66.57196736335753
 21
156.6477224826813
 31
0.0
  0
TEXT
  5
165
330
1F
100
AcDbEntity
  8
A
  6
FIN
 62
     4
100
AcDbText
 10
65.48498796286207
 20
149.093881020426
 30
0.0
 40
1.163758076088768
  1
+
 50
90.0
 41
1.149999999999999
  7
ARIAL
 72
     4
 11
65.10037623853396
 21
149.63979945762
 31
0.0
100
AcDbText
  0
LINE
  5
166
330
1F
100
AcDbEntity
  8
A
  6
BLEU
 62
     5
100
AcDbLine
 10
73.57954287528993
 20
80.21439182088469
 30
0.0
 11
73.57954287528993
 21
90.07575511932371
 31
0.0
  0
TEXT
  5
167
330
1F
100
AcDbEntity
  8
A
  6
FIN
 62
     4
100
AcDbText
 10
72.69221228525577
 20
85.01156389839286
 30
0.0
 40
1.163758076088768
  1
111
 50
90.0
 41
1.149999999999999
  7
ARIAL
 72
     4
 11
72.10795175046633
 21
86.571265654155
 31
0.0
100
AcDbText
  0
LINE
  5
168
330
1F
100
AcDbEntity
  8
A
  6
BLEU
 62
     5
100
AcDbLine
 10
73.57954287528993
 20
97.08333063125609
 30
0.0
 11
73.57954287528993
 21
118.1060571670532
 31
0.0
  0
TEXT
  5
169
330
1F
100
AcDbEntity
  8
A
  6
FIN
 62
     4
100
AcDbText
 10
72.69221228525577
 20
102.5305026782238
 30
0.0
 40
1.163758076088768
  1
111
 50
90.0
 41
1.149999999999999
  7
ARIAL
 72
     4
 11
72.10795175046633
 21
104.0902044339859
 31
0.0
100
AcDbText
  0
LINE
  5
16A
330
1F
100
AcDbEntity
  8
A
  6
BLEU
 62
     5
100
AcDbLine
 10
59.56439185142517
 20
97.08333063125609
 30
0.0
 11
59.56439185142517
 21
118.1060571670532
 31
0.0
  0
TEXT
  5
16B
330
1F
100
AcDbEntity
  8
A
  6
FIN
 62
     4
100
AcDbText
 10
58.66713835828659
 20
102.5305026782238
 30
0.0
 40
1.163758076088768
  1
110
 50
90.0
 41
1.149999999999999
  7
ARIAL
 72
     4
 11
58.09280072660158
 21
104.0902044339859
 31
0.0
100
AcDbText
  0
LINE
  5
16C
330
1F
100
AcDbEntity
  8
A
  6
BLEU
 62
     5
100
AcDbLine
 10
101.6098449230194
 20
97.08333063125609
 30
0.0
 11
101.6098449230194
 21
118.1060571670532
 31
0.0
  0
TEXT
  5
16D
330
1F
100
AcDbEntity
  8
A
  6
FIN
 62
     4
100
AcDbText
 10
100.7125914298808
 20
102.5305026782238
 30
0.0
 40
1.163758076088768
  1
109
 50
90.0
 41
1.149999999999999
  7
ARIAL
 72
     4
 11
100.1382537981958
 21
104.0902044339859
 31
0.0
100
AcDbText
  0
LINE
  5
16E
330
1F
100
AcDbEntity
  8
A
  6
BLEU
 62
     5
100
AcDbLine
 10
59.56439185142517
 20
79.56439185142517
 30
0.0
 11
59.56439185142517
 21
90.07575511932371
 31
0.0
  0
TEXT
  5
16F
330
1F
100
AcDbEntity
  8
A
  6
FIN
 62
     4
100
AcDbText
 10
58.66713835828659
 20
85.01156389839286
 30
0.0
 40
1.163758076088768
  1
110
 50
90.0
 41
1.149999999999999
  7
ARIAL
 72
     4
 11
58.09280072660158
 21
86.571265654155
 31
0.0
100
AcDbText
  0
LINE
  5
170
330
1F
100
AcDbEntity
  8
A
  6
BLEU
 62
     5
100
AcDbLine
 10
14.01515102386475
 20
164.3052979640732
 30
0.0
 11
14.01515102386475
 21
177.6704490184783
 31
0.0
  0
LINE
  5
171
330
1F
100
AcDbEntity
  8
A
  6
BLEU
 62
     5
100
AcDbLine
 10
28.03030204772948
 20
171.3128734760055
 30
0.0
 11
28.03030204772948
 21
177.6704490184783
 31
0.0
  0
LINE
  5
172
330
1F
100
AcDbEntity
  8
A
  6
BLEU
 62
     5
100
AcDbLine
 10
35.03787755966187
 20
111.0984816551209
 30
0.0
 11
35.03787755966187
 21
177.6704490184783
 31
0.0
  0
TEXT
  5
173
330
1F
100
AcDbEntity
  8
A
  6
FIN
 62
     4
100
AcDbText
 10
34.14062406652329
 20
130.5555519313514
 30
0.0
 40
1.163758076088768
  1
108
 50
90.0
 41
1.149999999999999
  7
ARIAL
 72
     4
 11
33.56628643483828
 21
132.1152536871135
 31
0.0
100
AcDbText
  0
LINE
  5
174
330
1F
100
AcDbEntity
  8
A
  6
BLEU
 62
     5
100
AcDbLine
 10
35.03787755966187
 20
72.55681633949279
 30
0.0
 11
55.41060412599944
 21
72.55681633949279
 31
0.0
  0
LINE
  5
175
330
1F
100
AcDbEntity
  8
A
  6
BLEU
 62
     5
100
AcDbLine
 10
21.02272653579712
 20
104.0909061431884
 30
0.0
 11
21.02272653579712
 21
177.6704490184783
 31
0.0
  0
TEXT
  5
176
330
1F
100
AcDbEntity
  8
A
  6
FIN
 62
     4
100
AcDbText
 10
20.12547304265854
 20
130.5576503760142
 30
0.0
 40
1.163758076088768
  1
106
 50
90.0
 41
1.149999999999999
  7
ARIAL
 72
     4
 11
19.55113541097353
 21
132.1173521317764
 31
0.0
100
AcDbText
  0
LINE
  5
177
330
1F
100
AcDbEntity
  8
A
  6
BLEU
 62
     5
100
AcDbLine
 10
35.03787755966187
 20
37.51893877983092
 30
0.0
 11
35.03787755966187
 21
55.03787755966186
 31
0.0
  0
TEXT
  5
178
330
1F
100
AcDbEntity
  8
A
  6
FIN
 62
     4
100
AcDbText
 10
34.14022715039911
 20
44.71870641398425
 30
0.0
 40
1.163758076088768
  1
113
 50
90.0
 41
1.149999999999999
  7
ARIAL
 72
     4
 11
33.56628643483828
 21
46.27840816974639
 31
0.0
100
AcDbText
  0
LINE
  5
179
330
1F
100
AcDbEntity
  8
A
  6
BLEU
 62
     5
100
AcDbLine
 10
42.04545307159424
 20
37.51893877983092
 30
0.0
 11
42.04545307159424
 21
55.03787755966186
 31
0.0
  0
TEXT
  5
17A
330
1F
100
AcDbEntity
  8
A
  6
FIN
 62
     4
100
AcDbText
 10
41.1581224815601
 20
44.71870641398425
 30
0.0
 40
1.163758076088768
  1
114
 50
90.0
 41
1.149999999999999
  7
ARIAL
 72
     4
 11
40.57386194677064
 21
46.27840816974639
 31
0.0
100
AcDbText
  0
LINE
  5
17B
330
1F
100
AcDbEntity
  8
A
  6
JAUNE
 62
     2
100
AcDbLine
 10
73.57954287528993
 20
153.143934726715
 30
0.0
 11
119.1287837028502
 21
153.143934726715
 31
0.0
  0
TEXT
  5
17C
330
1F
100
AcDbEntity
  8
A
  6
FIN
 62
     4
100
AcDbText
 10
94.28921716336059
 20
154.5436773501177
 30
0.0
 40
1.163758076088768
  1
-
 41
1.149999999999999
  7
ARIAL
 72
     4
 11
94.60051847955309
 21
154.6155191685938
 31
0.0
100
AcDbText
  0
LINE
  5
17D
330
1F
100
AcDbEntity
  8
A
  6
BLEU
 62
     5
100
AcDbLine
 10
63.06817960739135
 20
79.56439185142517
 30
0.0
 11
72.92954290583037
 21
79.56439185142517
 31
0.0
  0
LINE
  5
17E
330
1F
100
AcDbEntity
  8
A
  6
BLEU
 62
     5
100
AcDbLine
 10
35.03787755966187
 20
111.0984816551209
 30
0.0
 11
80.5871183872223
 21
111.0984816551209
 31
0.0
  0
TEXT
  5
17F
330
1F
100
AcDbEntity
  8
A
  6
FIN
 62
     4
100
AcDbText
 10
40.48364952969689
 20
111.9957351482593
 30
0.0
 40
1.163758076088768
  1
108
 41
1.149999999999999
  7
ARIAL
 72
     4
 11
42.04335128545904
 21
112.5700727799443
 31
0.0
100
AcDbText
  0
LINE
  5
180
330
1F
100
AcDbEntity
  8
A
  6
BLEU
 62
     5
100
AcDbLine
 10
28.03030204772948
 20
107.5946938991547
 30
0.0
 11
66.57196736335753
 21
107.5946938991547
 31
0.0
  0
TEXT
  5
181
330
1F
100
AcDbEntity
  8
A
  6
FIN
 62
     4
100
AcDbText
 10
40.48434789742702
 20
108.4919473922932
 30
0.0
 40
1.163758076088768
  1
107
 41
1.149999999999999
  7
ARIAL
 72
     4
 11
42.04404965318917
 21
109.0662850239783
 31
0.0
100
AcDbText
  0
LINE
  5
182
330
1F
100
AcDbEntity
  8
A
  6
JAUNE
 62
     2
100
AcDbLine
 10
66.57196736335753
 20
156.6477224826813
 30
0.0
 11
122.6325714588165
 21
156.6477224826813
 31
0.0
  0
TEXT
  5
183
330
1F
100
AcDbEntity
  8
A
  6
FIN
 62
     4
100
AcDbText
 10
94.05635097389316
 20
157.7346952002319
 30
0.0
 40
1.163758076088768
  1
+
 41
1.149999999999999
  7
ARIAL
 72
     4
 11
94.60226941108706
 21
158.11930692456
 31
0.0
100
AcDbText
  0
LINE
  5
184
330
1F
100
AcDbEntity
  8
A
  6
BLEU
 62
     5
100
AcDbLine
 10
42.04545307159424
 20
79.56439185142517
 30
0.0
 11
59.56439185142517
 21
79.56439185142517
 31
0.0
  0
LINE
  5
185
330
1F
100
AcDbEntity
  8
A
  6
BLEU
 62
     5
100
AcDbLine
 10
87.59469389915466
 20
62.04545307159424
 30
0.0
 11
87.59469389915466
 21
79.56439185142517
 31
0.0
  0
TEXT
  5
186
330
1F
100
AcDbEntity
  8
A
  6
FIN
 62
     4
100
AcDbText
 10
86.70736330912051
 20
63.98953907179829
 30
0.0
 40
1.163758076088768
  1
111
 50
90.0
 41
1.149999999999999
  7
ARIAL
 72
     4
 11
86.12310277433106
 21
65.54924082756044
 31
0.0
100
AcDbText
  0
LINE
  5
187
330
1F
100
AcDbEntity
  8
A
  6
BLEU
 62
     5
100
AcDbLine
 10
56.06060409545897
 20
37.51893877983092
 30
0.0
 11
56.06060409545897
 21
55.03787755966186
 31
0.0
  0
TEXT
  5
188
330
1F
100
AcDbEntity
  8
A
  6
FIN
 62
     4
100
AcDbText
 10
55.16335060232041
 20
44.71870641398425
 30
0.0
 40
1.163758076088768
  1
115
 50
90.0
 41
1.149999999999999
  7
ARIAL
 72
     4
 11
54.58901297063539
 21
46.27840816974639
 31
0.0
100
AcDbText
  0
LINE
  5
189
330
1F
100
AcDbEntity
  8
A
  6
BLEU
 62
     5
100
AcDbLine
 10
175.1893877983093
 20
153.143934726715
 30
0.0
 11
175.1893877983093
 21
170.6628735065459
 31
0.0
  0
LINE
  5
18A
330
1F
100
AcDbEntity
  8
A
  6
BLEU
 62
     5
100
AcDbLine
 10
21.02272653579712
 20
184.6780245304108
 30
0.0
 11
21.02272653579712
 21
188.1818122863769
 31
0.0
  0
LINE
  5
18B
330
1F
100
AcDbEntity
  8
A
  6
BLEU
 62
     5
100
AcDbLine
 10
56.06060409545897
 20
62.04545307159424
 30
0.0
 11
56.06060409545897
 21
71.90681637003327
 31
0.0
  0
TEXT
  5
18C
330
1F
100
AcDbEntity
  8
A
  6
FIN
 62
     4
100
AcDbText
 10
55.16335060232041
 20
63.98918821719701
 30
0.0
 40
1.163758076088768
  1
109
 50
90.0
 41
1.149999999999999
  7
ARIAL
 72
     4
 11
54.58901297063539
 21
65.54888997295916
 31
0.0
100
AcDbText
  0
LINE
  5
18D
330
1F
100
AcDbEntity
  8
A
  6
BLEU
 62
     5
100
AcDbLine
 10
87.59469389915466
 20
83.06817960739136
 30
0.0
 11
108.6174204349517
 21
83.06817960739136
 31
0.0
  0
LINE
  5
18E
330
1F
100
AcDbEntity
  8
A
  6
BLEU
 62
     5
100
AcDbLine
 10
14.01515102386475
 20
195.1893877983093
 30
0.0
 11
14.01515102386475
 21
202.1969633102417
 31
0.0
  0
TEXT
  5
18F
330
1F
100
AcDbEntity
  8
A
  6
FIN
 62
     4
100
AcDbText
 10
13.11789753072617
 20
197.1334804814581
 30
0.0
 40
1.163758076088768
  1
101
 50
90.0
 41
1.149999999999999
  7
ARIAL
 72
     4
 11
12.54355989904116
 21
198.6931822372202
 31
0.0
100
AcDbText
  0
LINE
  5
190
330
1F
100
AcDbEntity
  8
A
  6
BLEU
 62
     5
100
AcDbLine
 10
21.02272653579712
 20
195.1893877983093
 30
0.0
 11
21.02272653579712
 21
202.1969633102417
 31
0.0
  0
TEXT
  5
191
330
1F
100
AcDbEntity
  8
A
  6
FIN
 62
     4
100
AcDbText
 10
20.12547304265854
 20
197.1334804814581
 30
0.0
 40
1.163758076088768
  1
102
 50
90.0
 41
1.149999999999999
  7
ARIAL
 72
     4
 11
19.55113541097353
 21
198.6931822372202
 31
0.0
100
AcDbText
  0
LINE
  5
192
330
1F
100
AcDbEntity
  8
A
  6
BLEU
 62
     5
100
AcDbLine
 10
28.03030204772948
 20
195.1893877983093
 30
0.0
 11
28.03030204772948
 21
202.1969633102417
 31
0.0
  0
TEXT
  5
193
330
1F
100
AcDbEntity
  8
A
  6
FIN
 62
     4
100
AcDbText
 10
27.13265163846672
 20
197.1334804814581
 30
0.0
 40
1.163758076088768
  1
103
 50
90.0
 41
1.149999999999999
  7
ARIAL
 72
     4
 11
26.5587109229059
 21
198.6931822372202
 31
0.0
100
AcDbText
  0
LINE
  5
194
330
1F
100
AcDbEntity
  8
A
  6
BLEU
 62
     5
100
AcDbLine
 10
140.1515102386474
 20
153.143934726715
 30
0.0
 11
140.1515102386474
 21
163.0052980251541
 31
0.0
  0
LINE
  5
195
330
1F
100
AcDbEntity
  8
A
  6
BLEU
 62
     5
100
AcDbLine
 10
14.01515102386475
 20
184.6780245304108
 30
0.0
 11
14.01515102386475
 21
188.1818122863769
 31
0.0
  0
LINE
  5
196
330
1F
100
AcDbEntity
  8
A
  6
BLEU
 62
     5
100
AcDbLine
 10
35.03787755966187
 20
184.6780245304108
 30
0.0
 11
35.03787755966187
 21
188.1818122863769
 31
0.0
  0
LINE
  5
197
330
1F
100
AcDbEntity
  8
B
  6
POINT
 62
     3
100
AcDbLine
 10
59.56439208984375
 20
93.57954406738279
 30
0.0
 11
101.6098480224608
 21
93.57954406738279
 31
0.0
  0
INSERT
  5
1A2
330
1F
100
AcDbEntity
  8
B
  6
FIN
 62
     0
100
AcDbBlockReference
  2
141P0N_103_0_3_1
 10
3.503787755966186
 20
174.1666612625121
 30
0.0
  0
INSERT
  5
1AE
330
1F
100
AcDbEntity
  8
B
  6
FIN
 62
     0
100
AcDbBlockReference
  2
008C0_001_0_3_1
 10
3.503787755966186
 20
202.1969633102417
 30
0.0
  0
INSERT
  5
1ED
330
1F
100
AcDbEntity
  8
B
  6
FIN
 62
     0
100
AcDbBlockReference
 66
     1
  2
QD1P4_Q07_0_3_1
 10
14.01515102386475
 20
188.1818122863769
 30
0.0
  0
ATTRIB
  5
1EE
330
1ED
100
AcDbEntity
  8
B
  6
FIN
 62
     4
100
AcDbText
 10
4.456379215608094
 20
180.3596061211824
 30
0.0
 40
1.629261306524276
  1
30 mA
 41
0.9200000000000001
  7
ARIAL
 72
     2
 11
10.51136326789856
 21
181.1742367744445
 31
0.0
100
AcDbAttribute
  2
IDNDDR
 70
     0
 74
     2
  0
ATTRIB
  5
1EF
330
1ED
100
AcDbEntity
  8
B
  6
FIN
 62
     3
100
AcDbText
 10
6.219156042280951
 20
183.8058289765513
 30
0.0
 40
2.094764536959783
  1
Q0
 41
0.9200000000000001
  7
ARIAL
 72
     2
 11
9.810605549631702
 21
184.8532112450312
 31
0.0
100
AcDbAttribute
  2
$NOMCOMP
 70
     0
 74
     2
  0
ATTRIB
  5
1F0
330
1ED
100
AcDbEntity
  8
B
  6
FIN
 62
     1
100
AcDbText
 10
14.89109796285628
 20
176.3884327592698
 30
0.0
 40
1.512885498915399
  1
2
 41
0.9200000000000001
  7
ARIAL
 11
14.89109796285628
 21
177.1448755087276
 31
0.0
100
AcDbAttribute
  2
$PL:1
 70
     0
 74
     2
  0
ATTRIB
  5
1F1
330
1ED
100
AcDbEntity
  8
B
  6
FIN
 62
     1
100
AcDbText
 10
21.89867347478867
 20
176.3884327592698
 30
0.0
 40
1.512885498915399
  1
4
 41
0.9200000000000001
  7
ARIAL
 11
21.89867347478867
 21
177.1448755087276
 31
0.0
100
AcDbAttribute
  2
$PL:2
 70
     0
 74
     2
  0
ATTRIB
  5
1F2
330
1ED
100
AcDbEntity
  8
B
  6
FIN
 62
     1
100
AcDbText
 10
28.90624898672104
 20
176.3884327592698
 30
0.0
 40
1.512885498915399
  1
6
 41
0.9200000000000001
  7
ARIAL
 11
28.90624898672104
 21
177.1448755087276
 31
0.0
100
AcDbAttribute
  2
$PL:3
 70
     0
 74
     2
  0
ATTRIB
  5
1F3
330
1ED
100
AcDbEntity
  8
B
  6
FIN
 62
     1
100
AcDbText
 10
35.9138244986534
 20
176.3884327592698
 30
0.0
 40
1.512885498915399
  1
8
 41
0.9200000000000001
  7
ARIAL
 11
35.9138244986534
 21
177.1448755087276
 31
0.0
100
AcDbAttribute
  2
$PL:4
 70
     0
 74
     2
  0
SEQEND
  5
211
330
1ED
100
AcDbEntity
  8
B
  6
FIN
 62
     0
  0
INSERT
  5
210
330
1F
100
AcDbEntity
  8
B
  6
FIN
 62
     0
100
AcDbBlockReference
 66
     1
  2
Q89P4N_Q05_0_3_1
 10
14.01515102386475
 20
195.1893877983093
 30
0.0
  0
ATTRIB
  5
212
330
210
100
AcDbEntity
  8
B
  6
FIN
 62
     4
100
AcDbText
 10
7.35972721369364
 20
188.2431285721063
 30
0.0
 40
1.629261306524276
  1
A
 41
0.9200000000000001
  7
ARIAL
 72
     2
 11
8.759469389915466
 21
189.0577592253684
 31
0.0
100
AcDbAttribute
  2
UNITE_IN
 70
     0
 74
     2
  0
ATTRIB
  5
213
330
210
100
AcDbEntity
  8
B
  6
FIN
 62
     1
100
AcDbText
 10
14.89109796285628
 20
195.4840787024636
 30
0.0
 40
1.512885498915399
  1
1
 41
0.9200000000000001
  7
ARIAL
 11
14.89109796285628
 21
196.2405214519213
 31
0.0
100
AcDbAttribute
  2
$PL:1
 70
     0
 74
     2
  0
ATTRIB
  5
214
330
210
100
AcDbEntity
  8
B
  6
FIN
 62
     1
100
AcDbText
 10
14.89109796285628
 20
186.8997960271684
 30
0.0
 40
1.512885498915399
  1
2
 41
0.9200000000000001
  7
ARIAL
 11
14.89109796285628
 21
187.6562387766261
 31
0.0
100
AcDbAttribute
  2
$PL:2
 70
     0
 74
     2
  0
ATTRIB
  5
215
330
210
100
AcDbEntity
  8
B
  6
FIN
 62
     1
100
AcDbText
 10
21.89867347478867
 20
195.4840787024636
 30
0.0
 40
1.512885498915399
  1
3
 41
0.9200000000000001
  7
ARIAL
 11
21.89867347478867
 21
196.2405214519213
 31
0.0
100
AcDbAttribute
  2
$PL:3
 70
     0
 74
     2
  0
ATTRIB
  5
216
330
210
100
AcDbEntity
  8
B
  6
FIN
 62
     1
100
AcDbText
 10
21.89867347478867
 20
186.8997960271684
 30
0.0
 40
1.512885498915399
  1
4
 41
0.9200000000000001
  7
ARIAL
 11
21.89867347478867
 21
187.6562387766261
 31
0.0
100
AcDbAttribute
  2
$PL:4
 70
     0
 74
     2
  0
ATTRIB
  5
217
330
210
100
AcDbEntity
  8
B
  6
FIN
 62
     1
100
AcDbText
 10
28.90624898672104
 20
195.4840787024636
 30
0.0
 40
1.512885498915399
  1
5
 41
0.9200000000000001
  7
ARIAL
 11
28.90624898672104
 21
196.2405214519213
 31
0.0
100
AcDbAttribute
  2
$PL:5
 70
     0
 74
     2
  0
ATTRIB
  5
218
330
210
100
AcDbEntity
  8
B
  6
FIN
 62
     1
100
AcDbText
 10
28.90624898672104
 20
186.8997960271684
 30
0.0
 40
1.512885498915399
  1
6
 41
0.9200000000000001
  7
ARIAL
 11
28.90624898672104
 21
187.6562387766261
 31
0.0
100
AcDbAttribute
  2
$PL:6
 70
     0
 74
     2
  0
ATTRIB
  5
219
330
210
100
AcDbEntity
  8
B
  6
FIN
 62
     1
100
AcDbText
 10
35.9138244986534
 20
195.4840787024636
 30
0.0
 40
1.512885498915399
  1
7
 41
0.9200000000000001
  7
ARIAL
 11
35.9138244986534
 21
196.2405214519213
 31
0.0
100
AcDbAttribute
  2
$PL:7
 70
     0
 74
     2
  0
ATTRIB
  5
21A
330
210
100
AcDbEntity
  8
B
  6
FIN
 62
     1
100
AcDbText
 10
35.9138244986534
 20
186.8997960271684
 30
0.0
 40
1.512885498915399
  1
8
 41
0.9200000000000001
  7
ARIAL
 11
35.9138244986534
 21
187.6562387766261
 31
0.0
100
AcDbAttribute
  2
$PL:8
 70
     0
 74
     2
  0
ATTRIB
  5
21B
330
210
100
AcDbEntity
  8
B
  6
FIN
 62
     1
100
AcDbText
 10
4.678420889994228
 20
188.2431285721063
 30
0.0
 40
1.629261306524276
  1
25
 41
0.9200000000000001
  7
ARIAL
 72
     2
 11
7.007575511932372
 21
189.0577592253684
 31
0.0
100
AcDbAttribute
  2
IN
 70
     0
 74
     2
  0
ATTRIB
  5
21C
330
210
100
AcDbEntity
  8
B
  6
FIN
 62
     1
100
AcDbText
 10
36.78977143764496
 20
185.6152877551317
 30
0.0
 40
1.629261306524276
  1
4
 41
0.9200000000000001
  7
ARIAL
 11
36.78977143764496
 21
186.4299184083938
 31
0.0
100
AcDbAttribute
  2
NBPOLE
 70
     1
 74
     2
  0
SEQEND
  5
21E
330
210
100
AcDbEntity
  8
B
  6
FIN
 62
     0
  0
INSERT
  5
21D
330
1F
100
AcDbEntity
  8
B
  6
FIN
 62
     0
100
AcDbBlockReference
  2
008C0_001_0_3_1
 10
14.01515102386475
 20
202.1969633102417
 30
0.0
  0
INSERT
  5
21F
330
1F
100
AcDbEntity
  8
B
  6
FIN
 62
     0
100
AcDbBlockReference
  2
008C0_001_0_3_1
 10
21.02272653579712
 20
202.1969633102417
 30
0.0
  0
INSERT
  5
220
330
1F
100
AcDbEntity
  8
B
  6
FIN
 62
     0
100
AcDbBlockReference
  2
008C0_001_0_3_1
 10
28.03030204772948
 20
202.1969633102417
 30
0.0
  0
INSERT
  5
235
330
1F
100
AcDbEntity
  8
B
  6
FIN
 62
     0
100
AcDbBlockReference
 66
     1
  2
Q09P2N_Q01_0_3_1
 10
35.03787755966187
 20
62.04545307159424
 30
0.0
  0
ATTRIB
  5
236
330
235
100
AcDbEntity
  8
B
  6
FIN
 62
     4
100
AcDbText
 10
28.38245374949076
 20
55.09919384539127
 30
0.0
 40
1.629261306524276
  1
A
 41
0.9200000000000001
  7
ARIAL
 72
     2
 11
29.78219592571258
 21
55.9138244986534
 31
0.0
100
AcDbAttribute
  2
UNITE_IN
 70
     0
 74
     2
  0
ATTRIB
  5
237
330
235
100
AcDbEntity
  8
B
  6
FIN
 62
     3
100
AcDbText
 10
26.19074641836184
 20
57.84465647638895
 30
0.0
 40
2.094764536959783
  1
Q2
 41
0.9200000000000001
  7
ARIAL
 72
     2
 11
29.78219592571258
 21
58.89203874486884
 31
0.0
100
AcDbAttribute
  2
$NOMCOMP
 70
     0
 74
     2
  0
ATTRIB
  5
238
330
235
100
AcDbEntity
  8
B
  6
FIN
 62
     1
100
AcDbText
 10
35.9138244986534
 20
62.34014397574849
 30
0.0
 40
1.512885498915399
  1
N
 41
0.9200000000000001
  7
ARIAL
 11
35.9138244986534
 21
63.09658672520619
 31
0.0
100
AcDbAttribute
  2
$PL:1
 70
     0
 74
     2
  0
ATTRIB
  5
239
330
235
100
AcDbEntity
  8
B
  6
FIN
 62
     1
100
AcDbText
 10
42.92140001058579
 20
62.34014397574849
 30
0.0
 40
1.512885498915399
  1
1
 41
0.9200000000000001
  7
ARIAL
 11
42.92140001058579
 21
63.09658672520619
 31
0.0
100
AcDbAttribute
  2
$PL:3
 70
     0
 74
     2
  0
ATTRIB
  5
23A
330
235
100
AcDbEntity
  8
B
  6
FIN
 62
     1
100
AcDbText
 10
42.92140001058579
 20
53.75586130045341
 30
0.0
 40
1.512885498915399
  1
2
 41
0.9200000000000001
  7
ARIAL
 11
42.92140001058579
 21
54.51230404991111
 31
0.0
100
AcDbAttribute
  2
$PL:4
 70
     0
 74
     2
  0
ATTRIB
  5
23B
330
235
100
AcDbEntity
  8
B
  6
FIN
 62
     1
100
AcDbText
 10
22.7902153763366
 20
55.09919384539127
 30
0.0
 40
1.629261306524276
  1
10.00
 41
0.9200000000000001
  7
ARIAL
 72
     2
 11
28.03030204772948
 21
55.9138244986534
 31
0.0
100
AcDbAttribute
  2
IN
 70
     0
 74
     2
  0
ATTRIB
  5
23C
330
235
100
AcDbEntity
  8
B
  6
FIN
 62
     1
100
AcDbText
 10
43.79734694957733
 20
52.47135302841663
 30
0.0
 40
1.629261306524276
  1
1P+N
 41
0.9200000000000001
  7
ARIAL
 11
43.79734694957733
 21
53.28598368167877
 31
0.0
100
AcDbAttribute
  2
NBPOLEDEC
 70
     1
 74
     2
  0
SEQEND
  5
24C
330
235
100
AcDbEntity
  8
B
  6
FIN
 62
     0
  0
INSERT
  5
24B
330
1F
100
AcDbEntity
  8
B
  6
FIN
 62
     0
100
AcDbBlockReference
 66
     1
  2
010C0_001_0_3_1
 10
35.03787755966187
 20
37.51893877983092
 30
0.0
  0
ATTRIB
  5
24D
330
24B
100
AcDbEntity
  8
B
  6
FIN
 62
     3
100
AcDbText
 10
35.6185039083473
 20
31.70363846881339
 30
0.0
 40
1.86201292174203
  1
11
 50
90.0
 41
0.9200000000000001
  7
ARIAL
 72
     2
 11
34.68749744747629
 21
34.36552946531413
 31
0.0
100
AcDbAttribute
  2
$REPERE
 70
     1
 74
     2
  0
ATTRIB
  5
24E
330
24B
100
AcDbEntity
  8
B
  6
FIN
 62
     1
100
AcDbText
 10
35.50212810073842
 20
31.33908161467533
 30
0.0
 40
1.629261306524276
  1
3-3
 50
90.0
 41
0.9200000000000001
  7
ARIAL
 72
     2
 11
34.68749744747629
 21
34.36555118488468
 31
0.0
100
AcDbAttribute
  2
$REFTEAB00
 70
     0
 74
     2
  0
SEQEND
  5
250
330
24B
100
AcDbEntity
  8
B
  6
FIN
 62
     0
  0
INSERT
  5
24F
330
1F
100
AcDbEntity
  8
B
  6
FIN
 62
     0
100
AcDbBlockReference
  2
008C0_001_0_3_1
 10
35.03787755966187
 20
202.1969633102417
 30
0.0
  0
INSERT
  5
251
330
1F
100
AcDbEntity
  8
B
  6
FIN
 62
     0
100
AcDbBlockReference
 66
     1
  2
010C0_001_0_3_1
 10
42.04545307159424
 20
37.51893877983092
 30
0.0
  0
ATTRIB
  5
252
330
251
100
AcDbEntity
  8
B
  6
FIN
 62
     3
100
AcDbText
 10
42.62607942027967
 20
31.70363846881339
 30
0.0
 40
1.86201292174203
  1
12
 50
90.0
 41
0.9200000000000001
  7
ARIAL
 72
     2
 11
41.69507295940865
 21
34.36552946531413
 31
0.0
100
AcDbAttribute
  2
$REPERE
 70
     1
 74
     2
  0
ATTRIB
  5
253
330
251
100
AcDbEntity
  8
B
  6
FIN
 62
     1
100
AcDbText
 10
42.50970361267079
 20
31.33908161467533
 30
0.0
 40
1.629261306524276
  1
3-1
 50
90.0
 41
0.9200000000000001
  7
ARIAL
 72
     2
 11
41.69507295940865
 21
34.36555118488468
 31
0.0
100
AcDbAttribute
  2
$REFTEAB00
 70
     0
 74
     2
  0
SEQEND
  5
2EF
330
251
100
AcDbEntity
  8
B
  6
FIN
 62
     0
  0
INSERT
  5
2EE
330
1F
100
AcDbEntity
  8
B
  6
FIN
 62
     0
100
AcDbBlockReference
 66
     1
  2
_I188_KNX_0_3_1
 10
52.55681633949279
 20
146.1363592147827
 30
0.0
  0
ATTRIB
  5
2F0
330
2EE
100
AcDbEntity
  8
B
  6
FIN
 62
     1
100
AcDbText
 10
40.20399473229369
 20
148.8255163174867
 30
0.0
 40
1.629261306524276
  1
7KT1162
 41
0.9200000000000001
  7
ARIAL
 72
     2
 11
48.70264847134103
 21
149.6401469707488
 31
0.0
100
AcDbAttribute
  2
$CODE
 70
     0
 74
     2
  0
ATTRIB
  5
2F1
330
2EE
100
AcDbEntity
  8
B
  6
FIN
 62
     3
100
AcDbText
 10
46.66257889843369
 20
132.4753463711804
 30
0.0
 40
2.094764536959783
  1
U5
 41
0.9200000000000001
  7
ARIAL
 72
     2
 11
50.10416557861095
 21
133.5227286396603
 31
0.0
100
AcDbAttribute
  2
$ETIQUETTE
 70
     0
 74
     2
  0
ATTRIB
  5
2F2
330
2EE
100
AcDbEntity
  8
B
  6
FIN
 62
     1
100
AcDbText
 10
52.01611973082858
 20
142.223406192831
 30
0.0
 40
1.512885498915399
  1
1
 41
0.9200000000000001
  7
ARIAL
 72
     4
 11
52.55681633949279
 21
142.9829448880573
 31
0.0
100
AcDbAttribute
  2
$PL:1
 70
     0
 74
     2
  0
ATTRIB
  5
2F3
330
2EE
100
AcDbEntity
  8
B
  6
FIN
 62
     1
100
AcDbText
 10
73.03884626662572
 20
120.8632060018288
 30
0.0
 40
1.512885498915399
  1
6
 41
0.9200000000000001
  7
ARIAL
 72
     4
 11
73.57954287528993
 21
121.6098449230194
 31
0.0
100
AcDbAttribute
  2
$PL:10
 70
     0
 74
     2
  0
ATTRIB
  5
2F4
330
2EE
100
AcDbEntity
  8
B
  6
FIN
 62
     1
100
AcDbText
 10
80.0464217785581
 20
120.8632060018288
 30
0.0
 40
1.512885498915399
  1
7
 41
0.9200000000000001
  7
ARIAL
 72
     4
 11
80.5871183872223
 21
121.6098449230194
 31
0.0
100
AcDbAttribute
  2
$PL:11
 70
     0
 74
     2
  0
ATTRIB
  5
2F5
330
2EE
100
AcDbEntity
  8
B
  6
FIN
 62
     1
100
AcDbText
 10
87.05399729049046
 20
120.8632060018288
 30
0.0
 40
1.512885498915399
  1
9
 41
0.9200000000000001
  7
ARIAL
 72
     4
 11
87.59469389915466
 21
121.6098449230194
 31
0.0
100
AcDbAttribute
  2
$PL:12
 70
     0
 74
     2
  0
ATTRIB
  5
2F6
330
2EE
100
AcDbEntity
  8
B
  6
FIN
 62
     1
100
AcDbText
 10
93.52087619375863
 20
120.8632060018288
 30
0.0
 40
1.512885498915399
  1
10
 41
0.9200000000000001
  7
ARIAL
 72
     4
 11
94.60226941108706
 21
121.6098449230194
 31
0.0
100
AcDbAttribute
  2
$PL:13
 70
     0
 74
     2
  0
ATTRIB
  5
2F7
330
2EE
100
AcDbEntity
  8
B
  6
FIN
 62
     1
100
AcDbText
 10
100.5284517056909
 20
120.8503062277931
 30
0.0
 40
1.512885498915399
  1
12
 41
0.9200000000000001
  7
ARIAL
 72
     4
 11
101.6098449230194
 21
121.6098449230194
 31
0.0
100
AcDbAttribute
  2
$PL:14
 70
     0
 74
     2
  0
ATTRIB
  5
2F8
330
2EE
100
AcDbEntity
  8
B
  6
FIN
 62
     1
100
AcDbText
 10
59.02369524276096
 20
142.2363059668668
 30
0.0
 40
1.512885498915399
  1
6
 41
0.9200000000000001
  7
ARIAL
 72
     4
 11
59.56439185142517
 21
142.9829448880573
 31
0.0
100
AcDbAttribute
  2
$PL:2
 70
     0
 74
     2
  0
ATTRIB
  5
2F9
330
2EE
100
AcDbEntity
  8
B
  6
FIN
 62
     1
100
AcDbText
 10
80.0464217785581
 20
142.2363059668668
 30
0.0
 40
1.512885498915399
  1
9
 41
0.9200000000000001
  7
ARIAL
 72
     4
 11
80.5871183872223
 21
142.9829448880573
 31
0.0
100
AcDbAttribute
  2
$PL:3
 70
     0
 74
     2
  0
ATTRIB
  5
2FA
330
2EE
100
AcDbEntity
  8
B
  6
FIN
 62
     1
100
AcDbText
 10
86.51330068182623
 20
142.2363059668668
 30
0.0
 40
1.512885498915399
  1
10
 41
0.9200000000000001
  7
ARIAL
 72
     4
 11
87.59469389915466
 21
142.9829448880573
 31
0.0
100
AcDbAttribute
  2
$PL:4
 70
     0
 74
     2
  0
ATTRIB
  5
2FB
330
2EE
100
AcDbEntity
  8
B
  6
FIN
 62
     1
100
AcDbText
 10
93.52087619375863
 20
142.223406192831
 30
0.0
 40
1.512885498915399
  1
11
 41
0.9200000000000001
  7
ARIAL
 72
     4
 11
94.60226941108706
 21
142.9829448880573
 31
0.0
100
AcDbAttribute
  2
$PL:5
 70
     0
 74
     2
  0
ATTRIB
  5
2FC
330
2EE
100
AcDbEntity
  8
B
  6
FIN
 62
     1
100
AcDbText
 10
100.5284517056909
 20
142.223406192831
 30
0.0
 40
1.512885498915399
  1
12
 41
0.9200000000000001
  7
ARIAL
 72
     4
 11
101.6098449230194
 21
142.9829448880573
 31
0.0
100
AcDbAttribute
  2
$PL:6
 70
     0
 74
     2
  0
ATTRIB
  5
2FD
330
2EE
100
AcDbEntity
  8
B
  6
FIN
 62
     1
100
AcDbText
 10
52.01611973082858
 20
120.8503062277931
 30
0.0
 40
1.512885498915399
  1
1
 41
0.9200000000000001
  7
ARIAL
 72
     4
 11
52.55681633949279
 21
121.6098449230194
 31
0.0
100
AcDbAttribute
  2
$PL:7
 70
     0
 74
     2
  0
ATTRIB
  5
2FE
330
2EE
100
AcDbEntity
  8
B
  6
FIN
 62
     1
100
AcDbText
 10
59.02369524276096
 20
120.8637219927903
 30
0.0
 40
1.512885498915399
  1
3
 41
0.9200000000000001
  7
ARIAL
 72
     4
 11
59.56439185142517
 21
121.6098449230194
 31
0.0
100
AcDbAttribute
  2
$PL:8
 70
     0
 74
     2
  0
ATTRIB
  5
2FF
330
2EE
100
AcDbEntity
  8
B
  6
FIN
 62
     1
100
AcDbText
 10
66.03127075469332
 20
120.8534021735617
 30
0.0
 40
1.512885498915399
  1
4
 41
0.9200000000000001
  7
ARIAL
 72
     4
 11
66.57196736335753
 21
121.6098449230194
 31
0.0
100
AcDbAttribute
  2
$PL:9
 70
     0
 74
     2
  0
ATTRIB
  5
300
330
2EE
100
AcDbEntity
  8
B
  6
FIN
 62
     1
100
AcDbText
 10
39.97840653728377
 20
152.6796908685833
 30
0.0
 40
1.629261306524276
  1
SIEMENS
 41
0.9200000000000001
  7
ARIAL
 72
     2
 11
49.40340535423978
 21
153.4943215218454
 31
0.0
100
AcDbAttribute
  2
FABRICANT
 70
     0
 74
     2
  0
ATTRIB
  5
301
330
2EE
100
AcDbEntity
  8
B
  6
FIN
 62
     1
100
AcDbText
 10
33.14233364175582
 20
124.2990020257234
 30
0.0
 40
1.629261306524276
  1
@I188.@I9
 41
0.9200000000000001
  7
ARIAL
 72
     2
 11
43.79734694957733
 21
125.1136326789856
 31
0.0
100
AcDbAttribute
  2
SYMBOLE
 70
     1
 74
     2
  0
SEQEND
  5
303
330
2EE
100
AcDbEntity
  8
B
  6
FIN
 62
     0
  0
INSERT
  5
302
330
1F
100
AcDbEntity
  8
B
  6
FIN
 62
     0
100
AcDbBlockReference
 66
     1
  2
Q09P2N_Q01_0_3_1
 10
56.06060409545897
 20
62.04545307159424
 30
0.0
  0
ATTRIB
  5
304
330
302
100
AcDbEntity
  8
B
  6
FIN
 62
     4
100
AcDbText
 10
49.40518028528789
 20
55.09919384539127
 30
0.0
 40
1.629261306524276
  1
A
 41
0.9200000000000001
  7
ARIAL
 72
     2
 11
50.80492246150971
 21
55.9138244986534
 31
0.0
100
AcDbAttribute
  2
UNITE_IN
 70
     0
 74
     2
  0
ATTRIB
  5
305
330
302
100
AcDbEntity
  8
B
  6
FIN
 62
     3
100
AcDbText
 10
47.21347295415895
 20
57.84465647638895
 30
0.0
 40
2.094764536959783
  1
Q3
 41
0.9200000000000001
  7
ARIAL
 72
     2
 11
50.80492246150971
 21
58.89203874486884
 31
0.0
100
AcDbAttribute
  2
$NOMCOMP
 70
     0
 74
     2
  0
ATTRIB
  5
306
330
302
100
AcDbEntity
  8
B
  6
FIN
 62
     1
100
AcDbText
 10
56.93655103445053
 20
62.34014397574849
 30
0.0
 40
1.512885498915399
  1
N
 41
0.9200000000000001
  7
ARIAL
 11
56.93655103445053
 21
63.09658672520619
 31
0.0
100
AcDbAttribute
  2
$PL:1
 70
     0
 74
     2
  0
ATTRIB
  5
307
330
302
100
AcDbEntity
  8
B
  6
FIN
 62
     1
100
AcDbText
 10
63.9441265463829
 20
62.34014397574849
 30
0.0
 40
1.512885498915399
  1
1
 41
0.9200000000000001
  7
ARIAL
 11
63.9441265463829
 21
63.09658672520619
 31
0.0
100
AcDbAttribute
  2
$PL:3
 70
     0
 74
     2
  0
ATTRIB
  5
308
330
302
100
AcDbEntity
  8
B
  6
FIN
 62
     1
100
AcDbText
 10
63.9441265463829
 20
53.75586130045341
 30
0.0
 40
1.512885498915399
  1
2
 41
0.9200000000000001
  7
ARIAL
 11
63.9441265463829
 21
54.51230404991111
 31
0.0
100
AcDbAttribute
  2
$PL:4
 70
     0
 74
     2
  0
ATTRIB
  5
309
330
302
100
AcDbEntity
  8
B
  6
FIN
 62
     1
100
AcDbText
 10
43.81294191213373
 20
55.09919384539127
 30
0.0
 40
1.629261306524276
  1
10.00
 41
0.9200000000000001
  7
ARIAL
 72
     2
 11
49.05302858352661
 21
55.9138244986534
 31
0.0
100
AcDbAttribute
  2
IN
 70
     0
 74
     2
  0
ATTRIB
  5
30A
330
302
100
AcDbEntity
  8
B
  6
FIN
 62
     1
100
AcDbText
 10
64.82007348537445
 20
52.47135302841663
 30
0.0
 40
1.629261306524276
  1
1P+N
 41
0.9200000000000001
  7
ARIAL
 11
64.82007348537445
 21
53.28598368167877
 31
0.0
100
AcDbAttribute
  2
NBPOLEDEC
 70
     1
 74
     2
  0
SEQEND
  5
30C
330
302
100
AcDbEntity
  8
B
  6
FIN
 62
     0
  0
INSERT
  5
30B
330
1F
100
AcDbEntity
  8
B
  6
FIN
 62
     0
100
AcDbBlockReference
 66
     1
  2
010C0_001_0_3_1
 10
56.06060409545897
 20
37.51893877983092
 30
0.0
  0
ATTRIB
  5
30D
330
30B
100
AcDbEntity
  8
B
  6
FIN
 62
     3
100
AcDbText
 10
56.64123044414442
 20
31.70363846881339
 30
0.0
 40
1.86201292174203
  1
13
 50
90.0
 41
0.9200000000000001
  7
ARIAL
 72
     2
 11
55.71022398327341
 21
34.36552946531413
 31
0.0
100
AcDbAttribute
  2
$REPERE
 70
     1
 74
     2
  0
ATTRIB
  5
30E
330
30B
100
AcDbEntity
  8
B
  6
FIN
 62
     1
100
AcDbText
 10
56.52485463653555
 20
31.33908161467533
 30
0.0
 40
1.629261306524276
  1
2-7
 50
90.0
 41
0.9200000000000001
  7
ARIAL
 72
     2
 11
55.71022398327341
 21
34.36555118488468
 31
0.0
100
AcDbAttribute
  2
$REFTEAB00
 70
     0
 74
     2
  0
SEQEND
  5
323
330
30B
100
AcDbEntity
  8
B
  6
FIN
 62
     0
  0
INSERT
  5
322
330
1F
100
AcDbEntity
  8
B
  6
FIN
 62
     0
100
AcDbBlockReference
 66
     1
  2
X15C0_X01_0_3_1
 10
59.56439185142517
 20
93.57954287528992
 30
0.0
  0
ATTRIB
  5
324
330
322
100
AcDbEntity
  8
B
  6
FIN
 62
     3
100
AcDbText
 10
60.96590561722269
 20
95.10119051677314
 30
0.0
 40
1.86201292174203
  1
1
 41
0.9200000000000001
  7
ARIAL
 11
60.96590561722269
 21
96.03219697764416
 31
0.0
100
AcDbAttribute
  2
$BORNE
 70
     0
 74
     2
  0
ATTRIB
  5
325
330
322
100
AcDbEntity
  8
B
  6
FIN
 62
     3
100
AcDbText
 10
53.50749014442531
 20
95.10119051677314
 30
0.0
 40
1.86201292174203
  1
XR2
 41
0.9200000000000001
  7
ARIAL
 72
     2
 11
58.16287808562766
 21
96.03219697764416
 31
0.0
100
AcDbAttribute
  2
$NOMCOMP
 70
     0
 74
     2
  0
SEQEND
  5
327
330
322
100
AcDbEntity
  8
B
  6
FIN
 62
     0
  0
INSERT
  5
326
330
1F
100
AcDbEntity
  8
B
  6
FIN
 62
     0
100
AcDbBlockReference
 66
     1
  2
010C0_001_0_3_1
 10
63.06817960739135
 20
37.51893877983092
 30
0.0
  0
ATTRIB
  5
328
330
326
100
AcDbEntity
  8
B
  6
FIN
 62
     3
100
AcDbText
 10
63.64880595607679
 20
31.70363846881339
 30
0.0
 40
1.86201292174203
  1
14
 50
90.0
 41
0.9200000000000001
  7
ARIAL
 72
     2
 11
62.71779949520578
 21
34.36552946531413
 31
0.0
100
AcDbAttribute
  2
$REPERE
 70
     1
 74
     2
  0
ATTRIB
  5
329
330
326
100
AcDbEntity
  8
B
  6
FIN
 62
     1
100
AcDbText
 10
63.53243014846792
 20
31.33908161467533
 30
0.0
 40
1.629261306524276
  1
2-4
 50
90.0
 41
0.9200000000000001
  7
ARIAL
 72
     2
 11
62.71779949520578
 21
34.36555118488468
 31
0.0
100
AcDbAttribute
  2
$REFTEAB00
 70
     0
 74
     2
  0
SEQEND
  5
32B
330
326
100
AcDbEntity
  8
B
  6
FIN
 62
     0
  0
INSERT
  5
32A
330
1F
100
AcDbEntity
  8
B
  6
FIN
 62
     0
100
AcDbBlockReference
 66
     1
  2
X15C0_X01_0_3_1
 10
73.57954287528993
 20
93.57954287528992
 30
0.0
  0
ATTRIB
  5
32C
330
32A
100
AcDbEntity
  8
B
  6
FIN
 62
     3
100
AcDbText
 10
74.98105664108743
 20
95.10119051677314
 30
0.0
 40
1.86201292174203
  1
2
 41
0.9200000000000001
  7
ARIAL
 11
74.98105664108743
 21
96.03219697764416
 31
0.0
100
AcDbAttribute
  2
$BORNE
 70
     0
 74
     2
  0
ATTRIB
  5
32D
330
32A
100
AcDbEntity
  8
B
  6
FIN
 62
     3
100
AcDbText
 10
67.52264116829008
 20
95.10119051677314
 30
0.0
 40
1.86201292174203
  1
XR2
 41
0.9200000000000001
  7
ARIAL
 72
     2
 11
72.17802910949242
 21
96.03219697764416
 31
0.0
100
AcDbAttribute
  2
$NOMCOMP
 70
     1
 74
     2
  0
SEQEND
  5
32F
330
32A
100
AcDbEntity
  8
B
  6
FIN
 62
     0
  0
INSERT
  5
32E
330
1F
100
AcDbEntity
  8
B
  6
FIN
 62
     0
100
AcDbBlockReference
 66
     1
  2
Q09P2N_Q01_0_3_1
 10
80.5871183872223
 20
62.04545307159424
 30
0.0
  0
ATTRIB
  5
330
330
32E
100
AcDbEntity
  8
B
  6
FIN
 62
     4
100
AcDbText
 10
73.9316945770512
 20
55.09919384539127
 30
0.0
 40
1.629261306524276
  1
A
 41
0.9200000000000001
  7
ARIAL
 72
     2
 11
75.33143675327302
 21
55.9138244986534
 31
0.0
100
AcDbAttribute
  2
UNITE_IN
 70
     0
 74
     2
  0
ATTRIB
  5
331
330
32E
100
AcDbEntity
  8
B
  6
FIN
 62
     3
100
AcDbText
 10
71.73998724592228
 20
57.84465647638895
 30
0.0
 40
2.094764536959783
  1
Q4
 41
0.9200000000000001
  7
ARIAL
 72
     2
 11
75.33143675327302
 21
58.89203874486884
 31
0.0
100
AcDbAttribute
  2
$NOMCOMP
 70
     0
 74
     2
  0
ATTRIB
  5
332
330
32E
100
AcDbEntity
  8
B
  6
FIN
 62
     1
100
AcDbText
 10
81.46306532621386
 20
62.34014397574849
 30
0.0
 40
1.512885498915399
  1
N
 41
0.9200000000000001
  7
ARIAL
 11
81.46306532621386
 21
63.09658672520619
 31
0.0
100
AcDbAttribute
  2
$PL:1
 70
     0
 74
     2
  0
ATTRIB
  5
333
330
32E
100
AcDbEntity
  8
B
  6
FIN
 62
     1
100
AcDbText
 10
88.4706408381462
 20
62.34014397574849
 30
0.0
 40
1.512885498915399
  1
1
 41
0.9200000000000001
  7
ARIAL
 11
88.4706408381462
 21
63.09658672520619
 31
0.0
100
AcDbAttribute
  2
$PL:3
 70
     0
 74
     2
  0
ATTRIB
  5
334
330
32E
100
AcDbEntity
  8
B
  6
FIN
 62
     1
100
AcDbText
 10
88.4706408381462
 20
53.75586130045341
 30
0.0
 40
1.512885498915399
  1
2
 41
0.9200000000000001
  7
ARIAL
 11
88.4706408381462
 21
54.51230404991111
 31
0.0
100
AcDbAttribute
  2
$PL:4
 70
     0
 74
     2
  0
ATTRIB
  5
335
330
32E
100
AcDbEntity
  8
B
  6
FIN
 62
     1
100
AcDbText
 10
68.33945620389704
 20
55.09919384539127
 30
0.0
 40
1.629261306524276
  1
10.00
 41
0.9200000000000001
  7
ARIAL
 72
     2
 11
73.57954287528993
 21
55.9138244986534
 31
0.0
100
AcDbAttribute
  2
IN
 70
     0
 74
     2
  0
ATTRIB
  5
336
330
32E
100
AcDbEntity
  8
B
  6
FIN
 62
     1
100
AcDbText
 10
89.34658777713776
 20
52.47135302841663
 30
0.0
 40
1.629261306524276
  1
1P+N
 41
0.9200000000000001
  7
ARIAL
 11
89.34658777713776
 21
53.28598368167877
 31
0.0
100
AcDbAttribute
  2
NBPOLEDEC
 70
     1
 74
     2
  0
SEQEND
  5
338
330
32E
100
AcDbEntity
  8
B
  6
FIN
 62
     0
  0
INSERT
  5
337
330
1F
100
AcDbEntity
  8
B
  6
FIN
 62
     0
100
AcDbBlockReference
 66
     1
  2
010C0_001_0_3_1
 10
80.5871183872223
 20
37.51893877983092
 30
0.0
  0
ATTRIB
  5
339
330
337
100
AcDbEntity
  8
B
  6
FIN
 62
     3
100
AcDbText
 10
81.16774473590771
 20
31.70363846881339
 30
0.0
 40
1.86201292174203
  1
22
 50
90.0
 41
0.9200000000000001
  7
ARIAL
 72
     2
 11
80.23673827503669
 21
34.36552946531413
 31
0.0
100
AcDbAttribute
  2
$REPERE
 70
     1
 74
     2
  0
ATTRIB
  5
33A
330
337
100
AcDbEntity
  8
B
  6
FIN
 62
     1
100
AcDbText
 10
81.05136892829884
 20
31.33908161467533
 30
0.0
 40
1.629261306524276
  1
4-5
 50
90.0
 41
0.9200000000000001
  7
ARIAL
 72
     2
 11
80.23673827503669
 21
34.36555118488468
 31
0.0
100
AcDbAttribute
  2
$REFTEAB00
 70
     0
 74
     2
  0
SEQEND
  5
33C
330
337
100
AcDbEntity
  8
B
  6
FIN
 62
     0
  0
INSERT
  5
33B
330
1F
100
AcDbEntity
  8
B
  6
FIN
 62
     0
100
AcDbBlockReference
 66
     1
  2
010C0_001_0_3_1
 10
87.59469389915466
 20
37.51893877983092
 30
0.0
  0
ATTRIB
  5
33D
330
33B
100
AcDbEntity
  8
B
  6
FIN
 62
     3
100
AcDbText
 10
88.17532024784011
 20
31.70363846881339
 30
0.0
 40
1.86201292174203
  1
23
 50
90.0
 41
0.9200000000000001
  7
ARIAL
 72
     2
 11
87.24431378696909
 21
34.36552946531413
 31
0.0
100
AcDbAttribute
  2
$REPERE
 70
     1
 74
     2
  0
ATTRIB
  5
33E
330
33B
100
AcDbEntity
  8
B
  6
FIN
 62
     1
100
AcDbText
 10
88.05894444023122
 20
31.33908161467533
 30
0.0
 40
1.629261306524276
  1
4-3
 50
90.0
 41
0.9200000000000001
  7
ARIAL
 72
     2
 11
87.24431378696909
 21
34.36555118488468
 31
0.0
100
AcDbAttribute
  2
$REFTEAB00
 70
     0
 74
     2
  0
SEQEND
  5
340
330
33B
100
AcDbEntity
  8
B
  6
FIN
 62
     0
  0
INSERT
  5
33F
330
1F
100
AcDbEntity
  8
B
  6
FIN
 62
     0
100
AcDbBlockReference
 66
     1
  2
X15C0_X01_0_3_1
 10
87.59469389915466
 20
93.57954287528992
 30
0.0
  0
ATTRIB
  5
341
330
33F
100
AcDbEntity
  8
B
  6
FIN
 62
     3
100
AcDbText
 10
88.99620766495218
 20
95.10119051677314
 30
0.0
 40
1.86201292174203
  1
3
 41
0.9200000000000001
  7
ARIAL
 11
88.99620766495218
 21
96.03219697764416
 31
0.0
100
AcDbAttribute
  2
$BORNE
 70
     0
 74
     2
  0
ATTRIB
  5
342
330
33F
100
AcDbEntity
  8
B
  6
FIN
 62
     3
100
AcDbText
 10
81.53779219215483
 20
95.10119051677314
 30
0.0
 40
1.86201292174203
  1
XR2
 41
0.9200000000000001
  7
ARIAL
 72
     2
 11
86.19318013335716
 21
96.03219697764416
 31
0.0
100
AcDbAttribute
  2
$NOMCOMP
 70
     1
 74
     2
  0
SEQEND
  5
361
330
33F
100
AcDbEntity
  8
B
  6
FIN
 62
     0
  0
INSERT
  5
360
330
1F
100
AcDbEntity
  8
B
  6
FIN
 62
     0
100
AcDbBlockReference
 66
     1
  2
XC2P2_X07_0_3_1
 10
101.6098449230194
 20
41.02272653579712
 30
0.0
  0
ATTRIB
  5
362
330
360
100
AcDbEntity
  8
B
  6
FIN
 62
     4
100
AcDbText
 10
93.46119338786531
 20
24.79142983982057
 30
0.0
 40
1.629261306524276
  1
1P+N+T
 41
0.9200000000000001
  7
ARIAL
 72
     2
 11
101.2594648108337
 21
25.60606049308271
 31
0.0
100
AcDbAttribute
  2
TYPE
 70
     0
 74
     2
  0
SEQEND
  5
385
330
360
100
AcDbEntity
  8
B
  6
FIN
 62
     0
  0
INSERT
  5
384
330
1F
100
AcDbEntity
  8
B
  6
FIN
 62
     0
100
AcDbBlockReference
 66
     1
  2
Q48P2N_Q03_0_3_1
 10
101.6098449230194
 20
62.04545307159424
 30
0.0
  0
ATTRIB
  5
386
330
384
100
AcDbEntity
  8
B
  6
FIN
 62
     4
100
AcDbText
 10
92.05037293264867
 20
51.94578620161067
 30
0.0
 40
1.629261306524276
  1
10x38
 41
0.9200000000000001
  7
ARIAL
 72
     2
 11
97.75567705486764
 21
52.7604168548728
 31
0.0
100
AcDbAttribute
  2
TYPE DU FUSIBLE
 70
     0
 74
     2
  0
ATTRIB
  5
387
330
384
100
AcDbEntity
  8
B
  6
FIN
 62
     4
100
AcDbText
 10
94.9544211128483
 20
55.09919384539127
 30
0.0
 40
1.629261306524276
  1
A
 41
0.9200000000000001
  7
ARIAL
 72
     2
 11
96.35416328907012
 21
55.9138244986534
 31
0.0
100
AcDbAttribute
  2
UNITE_IT
 70
     0
 74
     2
  0
ATTRIB
  5
388
330
384
100
AcDbEntity
  8
B
  6
FIN
 62
     3
100
AcDbText
 10
92.76271378171939
 20
57.84465647638895
 30
0.0
 40
2.094764536959783
  1
Q6
 41
0.9200000000000001
  7
ARIAL
 72
     2
 11
96.35416328907012
 21
58.89203874486884
 31
0.0
100
AcDbAttribute
  2
$NOMCOMP
 70
     0
 74
     2
  0
ATTRIB
  5
389
330
384
100
AcDbEntity
  8
B
  6
FIN
 62
     1
100
AcDbText
 10
102.485791862011
 20
62.34014397574849
 30
0.0
 40
1.512885498915399
  1
N
 41
0.9200000000000001
  7
ARIAL
 11
102.485791862011
 21
63.09658672520619
 31
0.0
100
AcDbAttribute
  2
$PL:1
 70
     0
 74
     2
  0
ATTRIB
  5
38A
330
384
100
AcDbEntity
  8
B
  6
FIN
 62
     1
100
AcDbText
 10
109.4933673739432
 20
62.34014397574849
 30
0.0
 40
1.512885498915399
  1
1
 41
0.9200000000000001
  7
ARIAL
 11
109.4933673739432
 21
63.09658672520619
 31
0.0
100
AcDbAttribute
  2
$PL:3
 70
     0
 74
     2
  0
ATTRIB
  5
38B
330
384
100
AcDbEntity
  8
B
  6
FIN
 62
     1
100
AcDbText
 10
109.4933673739432
 20
53.75586130045341
 30
0.0
 40
1.512885498915399
  1
2
 41
0.9200000000000001
  7
ARIAL
 11
109.4933673739432
 21
54.51230404991111
 31
0.0
100
AcDbAttribute
  2
$PL:4
 70
     0
 74
     2
  0
ATTRIB
  5
38C
330
384
100
AcDbEntity
  8
B
  6
FIN
 62
     1
100
AcDbText
 10
98.46611519400543
 20
51.77059614551787
 30
0.0
 40
1.629261306524276
  1
gG
 41
0.9200000000000001
  7
ARIAL
 72
     2
 11
101.2594648108337
 21
52.58522679878002
 31
0.0
100
AcDbAttribute
  2
FULST
 70
     0
 74
     2
  0
ATTRIB
  5
38D
330
384
100
AcDbEntity
  8
B
  6
FIN
 62
     1
100
AcDbText
 10
92.2731147891489
 20
55.09919384539127
 30
0.0
 40
1.629261306524276
  1
16
 41
0.9200000000000001
  7
ARIAL
 72
     2
 11
94.60226941108706
 21
55.9138244986534
 31
0.0
100
AcDbAttribute
  2
ITH
 70
     0
 74
     2
  0
ATTRIB
  5
38E
330
384
100
AcDbEntity
  8
B
  6
FIN
 62
     1
100
AcDbText
 10
110.3693143129349
 20
52.47135302841663
 30
0.0
 40
1.629261306524276
  1
2
 41
0.9200000000000001
  7
ARIAL
 11
110.3693143129349
 21
53.28598368167877
 31
0.0
100
AcDbAttribute
  2
NBPOLE
 70
     1
 74
     2
  0
SEQEND
  5
390
330
384
100
AcDbEntity
  8
B
  6
FIN
 62
     0
  0
INSERT
  5
38F
330
1F
100
AcDbEntity
  8
B
  6
FIN
 62
     0
100
AcDbBlockReference
 66
     1
  2
X15C0_X01_0_3_1
 10
101.6098449230194
 20
93.57954287528992
 30
0.0
  0
ATTRIB
  5
391
330
38F
100
AcDbEntity
  8
B
  6
FIN
 62
     3
100
AcDbText
 10
103.0113653717616
 20
95.10119051677314
 30
0.0
 40
1.86201292174203
  1
4
 41
0.9200000000000001
  7
ARIAL
 11
103.0113653717616
 21
96.03219697764416
 31
0.0
100
AcDbAttribute
  2
$BORNE
 70
     0
 74
     2
  0
ATTRIB
  5
392
330
38F
100
AcDbEntity
  8
B
  6
FIN
 62
     3
100
AcDbText
 10
95.55293653307476
 20
95.10119051677314
 30
0.0
 40
1.86201292174203
  1
XR2
 41
0.9200000000000001
  7
ARIAL
 72
     2
 11
100.208324474277
 21
96.03219697764416
 31
0.0
100
AcDbAttribute
  2
$NOMCOMP
 70
     1
 74
     2
  0
SEQEND
  5
394
330
38F
100
AcDbEntity
  8
B
  6
FIN
 62
     0
  0
INSERT
  5
393
330
1F
100
AcDbEntity
  8
B
  6
FIN
 62
     0
100
AcDbBlockReference
 66
     1
  2
XC2P2_X07_0_3_1
 10
140.1515102386474
 20
111.0984816551209
 30
0.0
  0
ATTRIB
  5
395
330
393
100
AcDbEntity
  8
B
  6
FIN
 62
     4
100
AcDbText
 10
136.0801396534929
 20
89.78669129286755
 30
0.0
 40
1.629261306524276
  1
230 v
 41
0.9200000000000001
  7
ARIAL
 72
     2
 11
141.2026438922594
 21
90.6013219461297
 31
0.0
100
AcDbAttribute
  2
TENSION/COURANT
 70
     0
 74
     2
  0
ATTRIB
  5
396
330
393
100
AcDbEntity
  8
B
  6
FIN
 62
     4
100
AcDbText
 10
136.2074000008859
 20
93.46566576345415
 30
0.0
 40
1.629261306524276
  1
1P+N+T
 41
0.9200000000000001
  7
ARIAL
 72
     2
 11
144.0056714238544
 21
94.28029641671628
 31
0.0
100
AcDbAttribute
  2
TYPE
 70
     0
 74
     2
  0
ATTRIB
  5
397
330
393
100
AcDbEntity
  8
B
  6
FIN
 62
     3
100
AcDbText
 10
137.9096054530523
 20
96.03595504572098
 30
0.0
 40
2.094764536959783
  1
X1
 41
0.9200000000000001
  7
ARIAL
 72
     2
 11
141.2026438922594
 21
97.08333731420088
 31
0.0
100
AcDbAttribute
  2
$NOMCOMP
 70
     0
 74
     2
  0
SEQEND
  5
3B9
330
393
100
AcDbEntity
  8
B
  6
FIN
 62
     0
  0
INSERT
  5
3B8
330
1F
100
AcDbEntity
  8
B
  6
FIN
 62
     0
100
AcDbBlockReference
 66
     1
  2
Q85P2N_Q05_0_3_1
 10
140.1515102386474
 20
153.143934726715
 30
0.0
  0
ATTRIB
  5
3BA
330
3B8
100
AcDbEntity
  8
B
  6
FIN
 62
     4
100
AcDbText
 10
135.606266743836
 20
143.7450213981578
 30
0.0
 40
1.629261306524276
  1
gG
 41
0.9200000000000001
  7
ARIAL
 72
     2
 11
138.3996163606644
 21
144.5596520514199
 31
0.0
100
AcDbAttribute
  2
TYPE DU FUSIBLE
 70
     0
 74
     2
  0
ATTRIB
  5
3BB
330
3B8
100
AcDbEntity
  8
B
  6
FIN
 62
     4
100
AcDbText
 10
133.4960864284763
 20
146.1976755005121
 30
0.0
 40
1.629261306524276
  1
A
 41
0.9200000000000001
  7
ARIAL
 72
     2
 11
134.8958286046982
 21
147.0123061537743
 31
0.0
100
AcDbAttribute
  2
UNITE_IN
 70
     0
 74
     2
  0
ATTRIB
  5
3BC
330
3B8
100
AcDbEntity
  8
B
  6
FIN
 62
     3
100
AcDbText
 10
131.3043790973474
 20
148.9431381315098
 30
0.0
 40
2.094764536959783
  1
Q5
 41
0.9200000000000001
  7
ARIAL
 72
     2
 11
134.8958286046982
 21
149.9905203999897
 31
0.0
100
AcDbAttribute
  2
$NOMCOMP
 70
     0
 74
     2
  0
ATTRIB
  5
3BD
330
3B8
100
AcDbEntity
  8
B
  6
FIN
 62
     1
100
AcDbText
 10
141.027457177639
 20
153.4386256308692
 30
0.0
 40
1.512885498915399
  1
N
 41
0.9200000000000001
  7
ARIAL
 11
141.027457177639
 21
154.1950683803269
 31
0.0
100
AcDbAttribute
  2
$PL:1
 70
     0
 74
     2
  0
ATTRIB
  5
3BE
330
3B8
100
AcDbEntity
  8
B
  6
FIN
 62
     1
100
AcDbText
 10
148.0350326895714
 20
153.4386256308692
 30
0.0
 40
1.512885498915399
  1
1
 41
0.9200000000000001
  7
ARIAL
 11
148.0350326895714
 21
154.1950683803269
 31
0.0
100
AcDbAttribute
  2
$PL:3
 70
     0
 74
     2
  0
ATTRIB
  5
3BF
330
3B8
100
AcDbEntity
  8
B
  6
FIN
 62
     1
100
AcDbText
 10
148.0350326895714
 20
144.8543429555743
 30
0.0
 40
1.512885498915399
  1
2
 41
0.9200000000000001
  7
ARIAL
 11
148.0350326895714
 21
145.610785705032
 31
0.0
100
AcDbAttribute
  2
$PL:4
 70
     0
 74
     2
  0
ATTRIB
  5
3C0
330
3B8
100
AcDbEntity
  8
B
  6
FIN
 62
     1
100
AcDbText
 10
129.1905244824792
 20
143.5698346835374
 30
0.0
 40
1.629261306524276
  1
10x38
 41
0.9200000000000001
  7
ARIAL
 72
     2
 11
134.8958286046982
 21
144.3844653367996
 31
0.0
100
AcDbAttribute
  2
FULST
 70
     0
 74
     2
  0
ATTRIB
  5
3C1
330
3B8
100
AcDbEntity
  8
B
  6
FIN
 62
     1
100
AcDbText
 10
130.8147801047769
 20
146.1976755005121
 30
0.0
 40
1.629261306524276
  1
10
 41
0.9200000000000001
  7
ARIAL
 72
     2
 11
133.143934726715
 21
147.0123061537743
 31
0.0
100
AcDbAttribute
  2
IN
 70
     0
 74
     2
  0
ATTRIB
  5
3C2
330
3B8
100
AcDbEntity
  8
B
  6
FIN
 62
     1
100
AcDbText
 10
148.9109796285629
 20
143.5698346835374
 30
0.0
 40
1.629261306524276
  1
2
 41
0.9200000000000001
  7
ARIAL
 11
148.9109796285629
 21
144.3844653367996
 31
0.0
100
AcDbAttribute
  2
NBPOLE
 70
     1
 74
     2
  0
SEQEND
  5
410
330
3B8
100
AcDbEntity
  8
B
  6
FIN
 62
     0
  0
INSERT
  5
40F
330
1F
100
AcDbEntity
  8
B
  6
FIN
 62
     0
100
AcDbBlockReference
 66
     1
  2
_I447_KNX_0_3_1
 10
168.1818122863769
 20
121.6098449230194
 30
0.0
  0
ATTRIB
  5
411
330
40F
100
AcDbEntity
  8
B
  6
FIN
 62
     3
100
AcDbText
 10
163.3387051574574
 20
105.8465514063036
 30
0.0
 40
2.094764536959783
  1
U2
 41
0.9200000000000001
  7
ARIAL
 72
     2
 11
166.7802918376347
 21
106.8939336747835
 31
0.0
100
AcDbAttribute
  2
$ETIQUETTE
 70
     0
 74
     2
  0
ATTRIB
  5
412
330
40F
100
AcDbEntity
  8
B
  6
FIN
 62
     1
100
AcDbText
 10
167.6411156777127
 20
118.4007480712075
 30
0.0
 40
1.512885498915399
  1
L
 41
0.9200000000000001
  7
ARIAL
 72
     4
 11
168.1818122863769
 21
119.1571908206652
 31
0.0
100
AcDbAttribute
  2
$PL:1
 70
     0
 74
     2
  0
ATTRIB
  5
413
330
40F
100
AcDbEntity
  8
B
  6
FIN
 62
     1
100
AcDbText
 10
174.4872892169095
 20
118.4007480712075
 30
0.0
 40
1.512885498915399
  1
N
 41
0.9200000000000001
  7
ARIAL
 72
     4
 11
175.1893877983093
 21
119.1571908206652
 31
0.0
100
AcDbAttribute
  2
$PL:2
 70
     0
 74
     2
  0
ATTRIB
  5
414
330
40F
100
AcDbEntity
  8
B
  6
FIN
 62
     1
100
AcDbText
 10
182.8977101687233
 20
118.4007480712075
 30
0.0
 40
1.512885498915399
  1
PE
 41
0.9200000000000001
  7
ARIAL
 11
182.8977101687233
 21
119.1571908206652
 31
0.0
100
AcDbAttribute
  2
$PL:3
 70
     0
 74
     2
  0
ATTRIB
  5
415
330
40F
100
AcDbEntity
  8
B
  6
FIN
 62
     1
100
AcDbText
 10
167.6140571116953
 20
96.23295527744398
 30
0.0
 40
1.512885498915399
  1
+
 41
0.9200000000000001
  7
ARIAL
 72
     4
 11
168.1818122863769
 21
96.73295051907052
 31
0.0
100
AcDbAttribute
  2
$PL:4
 70
     0
 74
     2
  0
ATTRIB
  5
416
330
40F
100
AcDbEntity
  8
B
  6
FIN
 62
     1
100
AcDbText
 10
174.8656344294691
 20
96.63955615505152
 30
0.0
 40
1.512885498915399
  1
-
 41
0.9200000000000001
  7
ARIAL
 72
     4
 11
175.1893877983093
 21
96.73295051907052
 31
0.0
100
AcDbAttribute
  2
$PL:5
 70
     0
 74
     2
  0
ATTRIB
  5
417
330
40F
100
AcDbEntity
  8
B
  6
FIN
 62
     1
100
AcDbText
 10
181.62920813556
 20
96.23295527744398
 30
0.0
 40
1.512885498915399
  1
+
 41
0.9200000000000001
  7
ARIAL
 72
     4
 11
182.1969633102417
 21
96.73295051907052
 31
0.0
100
AcDbAttribute
  2
$PL:6
 70
     0
 74
     2
  0
ATTRIB
  5
418
330
40F
100
AcDbEntity
  8
B
  6
FIN
 62
     1
100
AcDbText
 10
188.8807854533338
 20
96.63955615505152
 30
0.0
 40
1.512885498915399
  1
-
 41
0.9200000000000001
  7
ARIAL
 72
     4
 11
189.204538822174
 21
96.73295051907052
 31
0.0
100
AcDbAttribute
  2
$PL:7
 70
     0
 74
     2
  0
ATTRIB
  5
419
330
40F
100
AcDbEntity
  8
B
  6
FIN
 62
     1
100
AcDbText
 10
170.6898088321797
 20
106.0793097044661
 30
0.0
 40
1.629261306524276
  1
5WG1125-1AB11
 41
0.9200000000000001
  7
ARIAL
 72
     2
 11
187.1022715149502
 21
106.8939403577283
 31
0.0
100
AcDbAttribute
  2
CODE
 70
     0
 74
     2
  0
ATTRIB
  5
41A
330
40F
100
AcDbEntity
  8
B
  6
FIN
 62
     1
100
AcDbText
 10
156.6545327963074
 20
124.9997622500946
 30
0.0
 40
1.629261306524276
  1
SIEMENS
 41
0.9200000000000001
  7
ARIAL
 72
     2
 11
166.0795316132634
 21
125.8143929033568
 31
0.0
100
AcDbAttribute
  2
FABRICANT
 70
     0
 74
     2
  0
ATTRIB
  5
41B
330
40F
100
AcDbEntity
  8
B
  6
FIN
 62
     1
100
AcDbText
 10
147.1984553231797
 20
101.8747617241288
 30
0.0
 40
1.629261306524276
  1
INSTABUS
 41
0.9200000000000001
  7
ARIAL
 72
     2
 11
157.6704490184784
 21
102.689392377391
 31
0.0
100
AcDbAttribute
  2
SERIE
 70
     1
 74
     2
  0
ATTRIB
  5
41C
330
40F
100
AcDbEntity
  8
B
  6
FIN
 62
     1
100
AcDbText
 10
146.435703195012
 20
96.26869997799396
 30
0.0
 40
1.629261306524276
  1
@I447.@IM
 41
0.9200000000000001
  7
ARIAL
 72
     2
 11
157.6704490184784
 21
97.08333063125609
 31
0.0
100
AcDbAttribute
  2
SYMBOLE
 70
     1
 74
     2
  0
SEQEND
  5
41E
330
40F
100
AcDbEntity
  8
B
  6
FIN
 62
     0
  0
INSERT
  5
41D
330
1F
100
AcDbEntity
  8
B
  6
FIN
 62
     0
100
AcDbBlockReference
 66
     1
  2
Q09P2N_Q01_0_3_1
 10
168.1818122863769
 20
153.143934726715
 30
0.0
  0
ATTRIB
  5
41F
330
41D
100
AcDbEntity
  8
B
  6
FIN
 62
     4
100
AcDbText
 10
161.5263884762058
 20
146.1976755005121
 30
0.0
 40
1.629261306524276
  1
A
 41
0.9200000000000001
  7
ARIAL
 72
     2
 11
162.9261306524277
 21
147.0123061537743
 31
0.0
100
AcDbAttribute
  2
UNITE_IN
 70
     0
 74
     2
  0
ATTRIB
  5
420
330
41D
100
AcDbEntity
  8
B
  6
FIN
 62
     3
100
AcDbText
 10
159.3346811450769
 20
148.9431381315098
 30
0.0
 40
2.094764536959783
  1
Q1
 41
0.9200000000000001
  7
ARIAL
 72
     2
 11
162.9261306524277
 21
149.9905203999897
 31
0.0
100
AcDbAttribute
  2
$NOMCOMP
 70
     0
 74
     2
  0
ATTRIB
  5
421
330
41D
100
AcDbEntity
  8
B
  6
FIN
 62
     1
100
AcDbText
 10
169.0577592253684
 20
153.4386256308692
 30
0.0
 40
1.512885498915399
  1
N
 41
0.9200000000000001
  7
ARIAL
 11
169.0577592253684
 21
154.1950683803269
 31
0.0
100
AcDbAttribute
  2
$PL:1
 70
     0
 74
     2
  0
ATTRIB
  5
422
330
41D
100
AcDbEntity
  8
B
  6
FIN
 62
     1
100
AcDbText
 10
176.0653347373009
 20
153.4386256308692
 30
0.0
 40
1.512885498915399
  1
1
 41
0.9200000000000001
  7
ARIAL
 11
176.0653347373009
 21
154.1950683803269
 31
0.0
100
AcDbAttribute
  2
$PL:3
 70
     0
 74
     2
  0
ATTRIB
  5
423
330
41D
100
AcDbEntity
  8
B
  6
FIN
 62
     1
100
AcDbText
 10
176.0653347373009
 20
144.8543429555743
 30
0.0
 40
1.512885498915399
  1
2
 41
0.9200000000000001
  7
ARIAL
 11
176.0653347373009
 21
145.610785705032
 31
0.0
100
AcDbAttribute
  2
$PL:4
 70
     0
 74
     2
  0
ATTRIB
  5
424
330
41D
100
AcDbEntity
  8
B
  6
FIN
 62
     1
100
AcDbText
 10
157.0987274140208
 20
146.1976755005121
 30
0.0
 40
1.629261306524276
  1
2.00
 41
0.9200000000000001
  7
ARIAL
 72
     2
 11
161.1742367744446
 21
147.0123061537743
 31
0.0
100
AcDbAttribute
  2
IN
 70
     0
 74
     2
  0
ATTRIB
  5
425
330
41D
100
AcDbEntity
  8
B
  6
FIN
 62
     1
100
AcDbText
 10
176.9412816762924
 20
143.5698346835374
 30
0.0
 40
1.629261306524276
  1
1P+N
 41
0.9200000000000001
  7
ARIAL
 11
176.9412816762924
 21
144.3844653367996
 31
0.0
100
AcDbAttribute
  2
NBPOLEDEC
 70
     1
 74
     2
  0
SEQEND
  5
42E
330
41D
100
AcDbEntity
  8
B
  6
FIN
 62
     0
  0
INSERT
  5
42D
330
1F
100
AcDbEntity
  8
B
  6
FIN
 62
     0
100
AcDbBlockReference
  2
T12C0N_T01_0_3_1
 10
206.723477602005
 20
118.1060571670532
 30
0.0
  0
INSERT
  5
43B
330
1F
100
AcDbEntity
  8
B
  6
FIN
 62
     0
100
AcDbBlockReference
 66
     1
  2
006C0_000_0_3_1
 10
217.2348408699035
 20
30.51136326789856
 30
0.0
  0
ATTRIB
  5
43C
330
43B
100
AcDbEntity
  8
B
  6
FIN
 62
     1
100
AcDbText
 10
215.9472042159418
 20
32.26325714588164
 30
0.0
 40
1.629261306524276
  1
+
 50
90.0
 41
0.9200000000000001
  7
ARIAL
 11
215.1325735626796
 21
32.26325714588164
 31
0.0
100
AcDbAttribute
  2
$NUM_EQUI
 70
     0
 74
     2
  0
ATTRIB
  5
43D
330
43B
100
AcDbEntity
  8
B
  6
FIN
 62
     3
100
AcDbText
 10
217.5271540289311
 20
27.25082071517567
 30
0.0
 40
1.280133883697645
  1
2
 50
90.0
 41
0.9200000000000001
  7
ARIAL
 72
     4
 11
216.8844674406627
 21
27.70833323019923
 31
0.0
100
AcDbAttribute
  2
$REPERE
 70
     1
 74
     2
  0
ATTRIB
  5
43E
330
43B
100
AcDbEntity
  8
B
  6
FIN
 62
     1
100
AcDbText
 10
217.5271540289311
 20
26.16900548465578
 30
0.0
 40
1.280133883697645
  1
2-1
 50
90.0
 41
0.9200000000000001
  7
ARIAL
 72
     4
 11
216.8844674406627
 21
27.35797567295231
 31
0.0
100
AcDbAttribute
  2
$REFTEAB00
 70
     0
 74
     2
  0
SEQEND
  5
440
330
43B
100
AcDbEntity
  8
B
  6
FIN
 62
     0
  0
INSERT
  5
43F
330
1F
100
AcDbEntity
  8
B
  6
FIN
 62
     0
100
AcDbBlockReference
 66
     1
  2
006C0_000_0_3_1
 10
224.2424163818359
 20
30.51136326789856
 30
0.0
  0
ATTRIB
  5
441
330
43F
100
AcDbEntity
  8
B
  6
FIN
 62
     1
100
AcDbText
 10
222.9547797278742
 20
32.26325714588164
 30
0.0
 40
1.629261306524276
  1
-
 50
90.0
 41
0.9200000000000001
  7
ARIAL
 11
222.140149074612
 21
32.26325714588164
 31
0.0
100
AcDbAttribute
  2
$NUM_EQUI
 70
     0
 74
     2
  0
ATTRIB
  5
442
330
43F
100
AcDbEntity
  8
B
  6
FIN
 62
     3
100
AcDbText
 10
224.5233777397121
 20
27.25082071517567
 30
0.0
 40
1.280133883697645
  1
3
 50
90.0
 41
0.9200000000000001
  7
ARIAL
 72
     4
 11
223.8920429525951
 21
27.70833323019923
 31
0.0
100
AcDbAttribute
  2
$REPERE
 70
     1
 74
     2
  0
ATTRIB
  5
443
330
43F
100
AcDbEntity
  8
B
  6
FIN
 62
     1
100
AcDbText
 10
224.5347295408635
 20
26.16900548465578
 30
0.0
 40
1.280133883697645
  1
2-1
 50
90.0
 41
0.9200000000000001
  7
ARIAL
 72
     4
 11
223.8920429525951
 21
27.35797567295231
 31
0.0
100
AcDbAttribute
  2
$REFTEAB00
 70
     0
 74
     2
  0
SEQEND
  5
486
330
43F
100
AcDbEntity
  8
B
  6
FIN
 62
     0
  0
INSERT
  5
485
330
1F
100
AcDbEntity
  8
B
  6
FIN
 62
     0
100
AcDbBlockReference
 66
     1
  2
_I448_KNX_0_3_1
 10
231.2499918937683
 20
76.06060409545898
 30
0.0
  0
ATTRIB
  5
487
330
485
100
AcDbEntity
  8
B
  6
FIN
 62
     3
100
AcDbText
 10
198.0262092878784
 20
69.40716008084422
 30
0.0
 40
2.094764536959783
  1
U3
 41
0.9200000000000001
  7
ARIAL
 72
     2
 11
201.4677959680557
 21
70.45454234932411
 31
0.0
100
AcDbAttribute
  2
$ETIQUETTE
 70
     0
 74
     2
  0
ATTRIB
  5
488
330
485
100
AcDbEntity
  8
B
  6
FIN
 62
     1
100
AcDbText
 10
202.6519346713571
 20
50.68371444988356
 30
0.0
 40
1.512885498915399
  1
+
 41
0.9200000000000001
  7
ARIAL
 72
     4
 11
203.2196898460388
 21
51.1837096915101
 31
0.0
100
AcDbAttribute
  2
$PL:1
 70
     0
 74
     2
  0
ATTRIB
  5
489
330
485
100
AcDbEntity
  8
B
  6
FIN
 62
     1
100
AcDbText
 10
209.9035119891309
 20
51.09031532749111
 30
0.0
 40
1.512885498915399
  1
-
 41
0.9200000000000001
  7
ARIAL
 72
     4
 11
210.2272653579711
 21
51.1837096915101
 31
0.0
100
AcDbAttribute
  2
$PL:2
 70
     0
 74
     2
  0
ATTRIB
  5
48A
330
485
100
AcDbEntity
  8
B
  6
FIN
 62
     1
100
AcDbText
 10
237.689812231019
 20
50.68371444988356
 30
0.0
 40
1.512885498915399
  1
+
 41
0.9200000000000001
  7
ARIAL
 72
     4
 11
238.2575674057006
 21
51.1837096915101
 31
0.0
100
AcDbAttribute
  2
$PL:25
 70
     0
 74
     2
  0
ATTRIB
  5
48B
330
485
100
AcDbEntity
  8
B
  6
FIN
 62
     1
100
AcDbText
 10
244.9413895487928
 20
51.09031532749111
 30
0.0
 40
1.512885498915399
  1
-
 41
0.9200000000000001
  7
ARIAL
 72
     4
 11
245.265142917633
 21
51.1837096915101
 31
0.0
100
AcDbAttribute
  2
$PL:26
 70
     0
 74
     2
  0
ATTRIB
  5
48C
330
485
100
AcDbEntity
  8
B
  6
FIN
 62
     1
100
AcDbText
 10
251.7049632548837
 20
50.68371444988356
 30
0.0
 40
1.512885498915399
  1
+
 41
0.9200000000000001
  7
ARIAL
 72
     4
 11
252.2727184295654
 21
51.1837096915101
 31
0.0
100
AcDbAttribute
  2
$PL:27
 70
     0
 74
     2
  0
ATTRIB
  5
48D
330
485
100
AcDbEntity
  8
B
  6
FIN
 62
     1
100
AcDbText
 10
258.9565405726576
 20
51.09031532749111
 30
0.0
 40
1.512885498915399
  1
-
 41
0.9200000000000001
  7
ARIAL
 72
     4
 11
259.2802939414978
 21
51.1837096915101
 31
0.0
100
AcDbAttribute
  2
$PL:28
 70
     0
 74
     2
  0
ATTRIB
  5
48E
330
485
100
AcDbEntity
  8
B
  6
FIN
 62
     1
100
AcDbText
 10
216.6670856952219
 20
50.68371444988356
 30
0.0
 40
1.512885498915399
  1
+
 41
0.9200000000000001
  7
ARIAL
 72
     4
 11
217.2348408699035
 21
51.1837096915101
 31
0.0
100
AcDbAttribute
  2
$PL:3
 70
     0
 74
     2
  0
ATTRIB
  5
48F
330
485
100
AcDbEntity
  8
B
  6
FIN
 62
     1
100
AcDbText
 10
223.9186630129956
 20
51.09031532749111
 30
0.0
 40
1.512885498915399
  1
-
 41
0.9200000000000001
  7
ARIAL
 72
     4
 11
224.2424163818359
 21
51.1837096915101
 31
0.0
100
AcDbAttribute
  2
$PL:4
 70
     0
 74
     2
  0
ATTRIB
  5
490
330
485
100
AcDbEntity
  8
B
  6
FIN
 62
     1
100
AcDbText
 10
228.9803953300952
 20
70.76213971045892
 30
0.0
 40
1.512885498915399
  1
RJ45
 41
0.9200000000000001
  7
ARIAL
 72
     4
 11
231.2499918937683
 21
71.50568268588085
 31
0.0
100
AcDbAttribute
  2
$PL:5
 70
     0
 74
     2
  0
ATTRIB
  5
491
330
485
100
AcDbEntity
  8
B
  6
FIN
 62
     1
100
AcDbText
 10
201.1727516163739
 20
59.82931533547938
 30
0.0
 40
1.629261306524276
  1
5WG1148-1AB21
 41
0.9200000000000001
  7
ARIAL
 72
     2
 11
217.5852142991444
 21
60.64394598874152
 31
0.0
100
AcDbAttribute
  2
CODE
 70
     0
 74
     2
  0
ATTRIB
  5
492
330
485
100
AcDbEntity
  8
B
  6
FIN
 62
     1
100
AcDbText
 10
199.050372663032
 20
64.3842334035851
 30
0.0
 40
1.629261306524276
  1
SIEMENS
 41
0.9200000000000001
  7
ARIAL
 72
     2
 11
208.4753714799881
 21
65.19886405684724
 31
0.0
100
AcDbAttribute
  2
FABRICANT
 70
     0
 74
     2
  0
ATTRIB
  5
493
330
485
100
AcDbEntity
  8
B
  6
FIN
 62
     1
100
AcDbText
 10
183.9882267608246
 20
51.42021937480468
 30
0.0
 40
1.629261306524276
  1
INSTABUS
 41
0.9200000000000001
  7
ARIAL
 72
     2
 11
194.4602204561233
 21
52.23485002806683
 31
0.0
100
AcDbAttribute
  2
SERIE
 70
     1
 74
     2
  0
ATTRIB
  5
494
330
485
100
AcDbEntity
  8
B
  6
FIN
 62
     1
100
AcDbText
 10
183.225474632657
 20
53.87287347715894
 30
0.0
 40
1.629261306524276
  1
@I448.@IM
 41
0.9200000000000001
  7
ARIAL
 72
     2
 11
194.4602204561233
 21
54.68750413042108
 31
0.0
100
AcDbAttribute
  2
SYMBOLE
 70
     1
 74
     2
  0
SEQEND
  5
496
330
485
100
AcDbEntity
  8
B
  6
FIN
 62
     0
  0
INSERT
  5
495
330
1F
100
AcDbEntity
  8
B
  6
FIN
 62
     0
100
AcDbBlockReference
  2
T12C0N_T01_0_3_1
 10
255.7765061855315
 20
104.0909061431884
 30
0.0
  0
INSERT
  5
5A4
330
1F
100
AcDbEntity
  8
B
  6
FIN
 62
     0
100
AcDbBlockReference
 66
     1
  2
ALIM_U01_0_3_1
 10
269.7916572093964
 20
125.1136326789856
 30
0.0
  0
ATTRIB
  5
5A5
330
5A4
100
AcDbEntity
  8
B
  6
FIN
 62
     4
100
AcDbText
 10
252.6248701313266
 20
112.9116918188333
 30
0.0
 40
1.629261306524276
  1
A
 41
0.9200000000000001
  7
ARIAL
 72
     2
 11
254.0246123075485
 21
113.7263224720955
 31
0.0
100
AcDbAttribute
  2
UNITE_IS
 70
     0
 74
     2
  0
ATTRIB
  5
5A6
330
5A4
100
AcDbEntity
  8
B
  6
FIN
 62
     4
100
AcDbText
 10
252.6279374991343
 20
118.1673734527826
 30
0.0
 40
1.629261306524276
  1
V
 41
0.9200000000000001
  7
ARIAL
 72
     2
 11
254.0246123075485
 21
118.9820041060447
 31
0.0
100
AcDbAttribute
  2
UNITE_UE
 70
     0
 74
     2
  0
ATTRIB
  5
5A7
330
5A4
100
AcDbEntity
  8
B
  6
FIN
 62
     4
100
AcDbText
 10
252.6279374991343
 20
115.5395326358079
 30
0.0
 40
1.629261306524276
  1
V
 41
0.9200000000000001
  7
ARIAL
 72
     2
 11
254.0246123075485
 21
116.35416328907
 31
0.0
100
AcDbAttribute
  2
UNITE_US
 70
     0
 74
     2
  0
ATTRIB
  5
5A8
330
5A4
100
AcDbEntity
  8
B
  6
FIN
 62
     3
100
AcDbText
 10
250.5830256273712
 20
120.9128427667251
 30
0.0
 40
2.094764536959783
  1
U1
 41
0.9200000000000001
  7
ARIAL
 72
     2
 11
254.0246123075485
 21
121.960225035205
 31
0.0
100
AcDbAttribute
  2
$NOMCOMP
 70
     0
 74
     2
  0
ATTRIB
  5
5A9
330
5A4
100
AcDbEntity
  8
B
  6
FIN
 62
     1
100
AcDbText
 10
269.2239020347148
 20
123.5428738778387
 30
0.0
 40
1.512885498915399
  1
~
 41
0.9200000000000001
  7
ARIAL
 72
     4
 11
269.7916572093964
 21
123.712118913188
 31
0.0
100
AcDbAttribute
  2
$PL:1
 70
     0
 74
     2
  0
ATTRIB
  5
5AA
330
5A4
100
AcDbEntity
  8
B
  6
FIN
 62
     1
100
AcDbText
 10
276.231477546647
 20
123.5428738778387
 30
0.0
 40
1.512885498915399
  1
~
 41
0.9200000000000001
  7
ARIAL
 72
     4
 11
276.7992327213286
 21
123.712118913188
 31
0.0
100
AcDbAttribute
  2
$PL:2
 70
     0
 74
     2
  0
ATTRIB
  5
5AB
330
5A4
100
AcDbEntity
  8
B
  6
FIN
 62
     1
100
AcDbText
 10
276.231477546647
 20
109.0217792501316
 30
0.0
 40
1.512885498915399
  1
+
 41
0.9200000000000001
  7
ARIAL
 72
     4
 11
276.7992327213286
 21
109.5217744917581
 31
0.0
100
AcDbAttribute
  2
$PL:3
 70
     0
 74
     2
  0
ATTRIB
  5
5AC
330
5A4
100
AcDbEntity
  8
B
  6
FIN
 62
     1
100
AcDbText
 10
269.4679038405562
 20
109.4283801277392
 30
0.0
 40
1.512885498915399
  1
-
 41
0.9200000000000001
  7
ARIAL
 72
     4
 11
269.7916572093964
 21
109.5217744917581
 31
0.0
100
AcDbAttribute
  2
$PL:4
 70
     0
 74
     2
  0
ATTRIB
  5
5AD
330
5A4
100
AcDbEntity
  8
B
  6
FIN
 62
     1
100
AcDbText
 10
248.1972090691415
 20
112.9116918188333
 30
0.0
 40
1.629261306524276
  1
1.30
 41
0.9200000000000001
  7
ARIAL
 72
     2
 11
252.2727184295654
 21
113.7263224720955
 31
0.0
100
AcDbAttribute
  2
INS
 70
     0
 74
     2
  0
ATTRIB
  5
5AE
330
5A4
100
AcDbEntity
  8
B
  6
FIN
 62
     1
100
AcDbText
 10
244.5879396154797
 20
118.1673734527826
 30
0.0
 40
1.629261306524276
  1
100-240
 41
0.9200000000000001
  7
ARIAL
 72
     2
 11
252.2727184295654
 21
118.9820041060447
 31
0.0
100
AcDbAttribute
  2
UEACPLA
 70
     0
 74
     2
  0
ATTRIB
  5
5AF
330
5A4
100
AcDbEntity
  8
B
  6
FIN
 62
     1
100
AcDbText
 10
249.9435638076272
 20
115.5395326358079
 30
0.0
 40
1.629261306524276
  1
24
 41
0.9200000000000001
  7
ARIAL
 72
     2
 11
252.2727184295654
 21
116.35416328907
 31
0.0
100
AcDbAttribute
  2
USPLA
 70
     0
 74
     2
  0
SEQEND
  5
5B1
330
5A4
100
AcDbEntity
  8
B
  6
FIN
 62
     0
  0
INSERT
  5
5B0
330
1F
100
AcDbEntity
  8
B
  6
FIN
 62
     0
100
AcDbBlockReference
 66
     1
  2
010C0_001_0_3_1
 10
269.7916572093964
 20
27.00757551193237
 30
0.0
  0
ATTRIB
  5
5B2
330
5B0
100
AcDbEntity
  8
B
  6
FIN
 62
     3
100
AcDbText
 10
270.3722902410266
 20
21.19227520091483
 30
0.0
 40
1.86201292174203
  1
18
 50
90.0
 41
0.9200000000000001
  7
ARIAL
 72
     2
 11
269.4412837801556
 21
23.85416619741557
 31
0.0
100
AcDbAttribute
  2
$REPERE
 70
     1
 74
     2
  0
ATTRIB
  5
5B3
330
5B0
100
AcDbEntity
  8
B
  6
FIN
 62
     1
100
AcDbText
 10
270.2559144334177
 20
20.82771834677676
 30
0.0
 40
1.629261306524276
  1
2-9
 50
90.0
 41
0.9200000000000001
  7
ARIAL
 72
     2
 11
269.4412837801556
 21
23.85418791698612
 31
0.0
100
AcDbAttribute
  2
$REFTEAB00
 70
     0
 74
     2
  0
SEQEND
  5
5B5
330
5B0
100
AcDbEntity
  8
B
  6
FIN
 62
     0
  0
INSERT
  5
5B4
330
1F
100
AcDbEntity
  8
B
  6
FIN
 62
     0
100
AcDbBlockReference
 66
     1
  2
010C0_001_0_3_1
 10
276.7992327213286
 20
27.00757551193237
 30
0.0
  0
ATTRIB
  5
5B6
330
5B4
100
AcDbEntity
  8
B
  6
FIN
 62
     3
100
AcDbText
 10
277.379865752959
 20
21.19227520091483
 30
0.0
 40
1.86201292174203
  1
17
 50
90.0
 41
0.9200000000000001
  7
ARIAL
 72
     2
 11
276.448859292088
 21
23.85416619741557
 31
0.0
100
AcDbAttribute
  2
$REPERE
 70
     1
 74
     2
  0
ATTRIB
  5
5B7
330
5B4
100
AcDbEntity
  8
B
  6
FIN
 62
     1
100
AcDbText
 10
277.2634899453501
 20
20.82771834677676
 30
0.0
 40
1.629261306524276
  1
2-4
 50
90.0
 41
0.9200000000000001
  7
ARIAL
 72
     2
 11
276.448859292088
 21
23.85418791698612
 31
0.0
100
AcDbAttribute
  2
$REFTEAB00
 70
     0
 74
     2
  0
SEQEND
  5
5BF
330
5B4
100
AcDbEntity
  8
B
  6
FIN
 62
     0
  0
TEXT
  5
5B8
330
1F
100
AcDbEntity
  8
B
  6
FIN
 62
     7
100
AcDbText
 10
42.04545641306664
 20
201.6713898004909
 30
0.0
 40
1.629261306524276
  1
ALIMENTATION SECTEUR 3P+N+ T
 41
1.149999999999999
  7
ARIAL
100
AcDbText
  0
TEXT
  5
5B9
330
1F
100
AcDbEntity
  8
B
  6
FIN
 62
     7
100
AcDbText
 10
63.7689398317625
 20
183.118840048277
 30
0.0
 40
2.071489375438008
  1
COMPTEUR ENERGIE
 41
1.149999999999999
  7
ARIAL
100
AcDbText
  0
TEXT
  5
5BA
330
1F
100
AcDbEntity
  8
B
  6
FIN
 62
     7
100
AcDbText
 10
165.5538378105065
 20
182.4180798239058
 30
0.0
 40
2.071489375438008
  1
ALIMENTATION BUS
 41
1.149999999999999
  7
ARIAL
100
AcDbText
  0
TEXT
  5
5BB
330
1F
100
AcDbEntity
  8
B
  6
FIN
 62
     7
100
AcDbText
 10
216.534094011422
 20
82.36742606596498
 30
0.0
 40
1.86201292174203
  1
INTERFACE  IP
 41
1.149999999999999
  7
ARIAL
100
AcDbText
  0
TEXT
  5
5BC
330
1F
100
AcDbEntity
  8
B
  6
FIN
 62
     7
100
AcDbText
 10
52.55681299802041
 20
24.20454547423304
 30
0.0
 40
1.86201292174203
  1
DISTRIBUTION
 41
1.149999999999999
  7
ARIAL
100
AcDbText
  0
TEXT
  5
5BD
330
1F
100
AcDbEntity
  8
B
  6
FIN
 62
     7
100
AcDbText
 10
262.0833348389824
 20
139.6545844327238
 30
0.0
 40
1.86201292174203
  1
ALIMENTATION 24V
 41
1.149999999999999
  7
ARIAL
100
AcDbText
  0
TEXT
  5
5BE
330
1F
100
AcDbEntity
  8
B
  6
FIN
 62
     7
100
AcDbText
 10
107.9166668935254
 20
25.25568246931737
 30
0.0
 40
1.396509691306523
  1
VERS OPTION KN11
 41
1.149999999999999
  7
ARIAL
100
AcDbText
  0
ENDSEC
  0
SECTION
  2
OBJECTS
  0
DICTIONARY
  5
C
330
0
100
AcDbDictionary
281
     1
  3
ACAD_GROUP
350
D
  3
ACAD_IMAGE_DICT
350
79
  3
ACAD_IMAGE_VARS
350
7B
  3
ACAD_LAYOUT
350
1A
  3
ACAD_MLINESTYLE
350
17
  3
ACAD_PLOTSETTINGS
350
19
  3
ACAD_PLOTSTYLENAME
350
5E6
  3
ACDBHEADERROUNDTRIPXREC
350
5EE
  3
AcDbVariableDictionary
350
5EB
  0
IMAGEDEF_REACTOR
  5
7D
330
7C
100
AcDbRasterImageDefReactor
 90
        2
330
7C
  0
DICTIONARY
  5
D
102
{ACAD_REACTORS
330
C
102
}
330
C
100
AcDbDictionary
281
     1
  0
DICTIONARY
  5
79
102
{ACAD_REACTORS
330
C
102
}
330
C
100
AcDbDictionary
281
     1
  3
PETIT_LOGO_ERM_BLEU_ET_ORA
350
7A
  0
RASTERVARIABLES
  5
7B
102
{ACAD_REACTORS
330
C
102
}
330
C
100
AcDbRasterVariables
 90
        0
 70
     1
 71
     1
 72
     0
  0
DICTIONARY
  5
1A
102
{ACAD_REACTORS
330
C
102
}
330
C
100
AcDbDictionary
281
     1
  3
Model
350
5E8
  3
Présentation1
350
5E9
  0
DICTIONARY
  5
17
102
{ACAD_REACTORS
330
C
102
}
330
C
100
AcDbDictionary
281
     1
  3
STANDARD
350
18
  0
DICTIONARY
  5
19
102
{ACAD_REACTORS
330
C
102
}
330
C
100
AcDbDictionary
281
     1
  0
ACDBDICTIONARYWDFLT
  5
5E6
102
{ACAD_REACTORS
330
C
102
}
330
C
100
AcDbDictionary
281
     1
  3
Normal
350
5E7
100
AcDbDictionaryWithDefault
340
5E7
  0
DICTIONARY
  5
5EE
102
{ACAD_REACTORS
330
C
102
}
330
C
100
AcDbDictionary
281
     1
  3
CEPSNTYPE
350
5F8
  3
FINGERPRINTGUID
350
5F9
  3
HYPERLINKBASE
350
5F1
  3
INSUNITS
350
5F7
  3
LAYOUTDICT
350
5F3
  3
LWETCUNION
350
5F6
  3
PLOTSETDICT
350
5F4
  3
PLOTSTYLNAMDICT
350
5F5
  3
PSVPSCALE
350
5FB
  3
PUCSBASE
350
5FE
  3
PUCSORGBACK
350
604
  3
PUCSORGBOTTOM
350
600
  3
PUCSORGFRONT
350
603
  3
PUCSORGLEFT
350
601
  3
PUCSORGRIGHT
350
602
  3
PUCSORGTOP
350
5FF
  3
PUCSORTHOREF
350
5FC
  3
PUCSORTHOVIEW
350
5FD
  3
STYLESHEET
350
5F2
  3
TSTACKALIGN
350
5EF
  3
TSTACKSIZE
350
5F0
  3
UCSBASE
350
607
  3
UCSORGBACK
350
60D
  3
UCSORGBOTTOM
350
609
  3
UCSORGFRONT
350
60C
  3
UCSORGLEFT
350
60A
  3
UCSORGRIGHT
350
60B
  3
UCSORGTOP
350
608
  3
UCSORTHOREF
350
605
  3
UCSORTHOVIEW
350
606
  3
VERSIONGUID
350
5FA
  0
DICTIONARY
  5
5EB
102
{ACAD_REACTORS
330
C
102
}
330
C
100
AcDbDictionary
281
     1
  3
DIMASSOC
350
5EC
  0
IMAGEDEF
  5
7A
102
{ACAD_REACTORS
330
79
330
7D
102
}
330
79
100
AcDbRasterImageDef
 90
        0
  1
PETIT LOGO ERM BLEU ET ORANGE.JPG
 10
367.0
 20
137.0
 11
0.002724795640327
 21
0.002724795640327
280
     1
281
     1
  0
LAYOUT
  5
5E8
102
{ACAD_REACTORS
330
1A
102
}
330
1A
100
AcDbPlotSettings
  1

  2
\\PATRICK\HP LaserJet 6L
  4

  6

 40
0.0
 41
0.0
 42
0.0
 43
0.0
 44
0.0
 45
0.0
 46
0.0
 47
0.0
 48
0.0
 49
0.0
140
0.0
141
0.0
142
1.0
143
1.0
 70
  1712
 72
     0
 73
     0
 74
     0
  7

 75
     0
147
1.0
148
0.0
149
0.0
100
AcDbLayout
  1
Model
 70
     1
 71
     0
 10
0.0
 20
0.0
 11
12.0
 21
9.0
 12
0.0
 22
0.0
 32
0.0
 14
0.0
 24
0.0
 34
0.0
 15
0.0
 25
0.0
 35
0.0
146
0.0
 13
0.0
 23
0.0
 33
0.0
 16
1.0
 26
0.0
 36
0.0
 17
0.0
 27
1.0
 37
0.0
 76
     0
330
1F
  0
LAYOUT
  5
5E9
102
{ACAD_REACTORS
330
1A
102
}
330
1A
100
AcDbPlotSettings
  1

  2
\\PATRICK\HP LaserJet 6L
  4

  6

 40
0.0
 41
0.0
 42
0.0
 43
0.0
 44
0.0
 45
0.0
 46
0.0
 47
0.0
 48
0.0
 49
0.0
140
0.0
141
0.0
142
1.0
143
1.0
 70
   688
 72
     0
 73
     0
 74
     5
  7

 75
    16
147
1.0
148
0.0
149
0.0
100
AcDbLayout
  1
Présentation1
 70
     1
 71
     1
 10
0.0
 20
0.0
 11
297.0
 21
210.0
 12
0.0
 22
0.0
 32
0.0
 14
0.0
 24
0.0
 34
0.0
 15
297.0
 25
210.0
 35
0.0
146
0.0
 13
0.0
 23
0.0
 33
0.0
 16
1.0
 26
0.0
 36
0.0
 17
0.0
 27
1.0
 37
0.0
 76
     0
330
1B
  0
MLINESTYLE
  5
18
102
{ACAD_REACTORS
330
17
102
}
330
17
100
AcDbMlineStyle
  2
STANDARD
 70
     0
  3

 62
   256
 51
90.0
 52
90.0
 71
     2
 49
0.5
 62
   256
  6
BYLAYER
 49
-0.5
 62
   256
  6
BYLAYER
  0
ACDBPLACEHOLDER
  5
5E7
102
{ACAD_REACTORS
330
5E6
102
}
330
5E6
  0
XRECORD
  5
5F8
102
{ACAD_REACTORS
330
5EE
102
}
330
5EE
100
AcDbXrecord
280
     1
 90
        0
  0
XRECORD
  5
5F9
102
{ACAD_REACTORS
330
5EE
102
}
330
5EE
100
AcDbXrecord
280
     1
  1
{13CBA23F-78AE-4FDE-8B0A-2E31E933CD93}
  0
XRECORD
  5
5F1
102
{ACAD_REACTORS
330
5EE
102
}
330
5EE
100
AcDbXrecord
280
     1
  1

  0
XRECORD
  5
5F7
102
{ACAD_REACTORS
330
5EE
102
}
330
5EE
100
AcDbXrecord
280
     1
 90
        0
  0
XRECORD
  5
5F3
102
{ACAD_REACTORS
330
5EE
102
}
330
5EE
100
AcDbXrecord
280
     1
340
1A
  0
XRECORD
  5
5F6
102
{ACAD_REACTORS
330
5EE
102
}
330
5EE
100
AcDbXrecord
280
     1
 90
    10781
  0
XRECORD
  5
5F4
102
{ACAD_REACTORS
330
5EE
102
}
330
5EE
100
AcDbXrecord
280
     1
340
19
  0
XRECORD
  5
5F5
102
{ACAD_REACTORS
330
5EE
102
}
330
5EE
100
AcDbXrecord
280
     1
340
5E6
  0
XRECORD
  5
5FB
102
{ACAD_REACTORS
330
5EE
102
}
330
5EE
100
AcDbXrecord
280
     1
 40
0.0
  0
XRECORD
  5
5FE
102
{ACAD_REACTORS
330
5EE
102
}
330
5EE
100
AcDbXrecord
280
     1
340
0
  0
XRECORD
  5
604
102
{ACAD_REACTORS
330
5EE
102
}
330
5EE
100
AcDbXrecord
280
     1
 10
0.0
 20
0.0
 30
0.0
  0
XRECORD
  5
600
102
{ACAD_REACTORS
330
5EE
102
}
330
5EE
100
AcDbXrecord
280
     1
 10
0.0
 20
0.0
 30
0.0
  0
XRECORD
  5
603
102
{ACAD_REACTORS
330
5EE
102
}
330
5EE
100
AcDbXrecord
280
     1
 10
0.0
 20
0.0
 30
0.0
  0
XRECORD
  5
601
102
{ACAD_REACTORS
330
5EE
102
}
330
5EE
100
AcDbXrecord
280
     1
 10
0.0
 20
0.0
 30
0.0
  0
XRECORD
  5
602
102
{ACAD_REACTORS
330
5EE
102
}
330
5EE
100
AcDbXrecord
280
     1
 10
0.0
 20
0.0
 30
0.0
  0
XRECORD
  5
5FF
102
{ACAD_REACTORS
330
5EE
102
}
330
5EE
100
AcDbXrecord
280
     1
 10
0.0
 20
0.0
 30
0.0
  0
XRECORD
  5
5FC
102
{ACAD_REACTORS
330
5EE
102
}
330
5EE
100
AcDbXrecord
280
     1
340
0
  0
XRECORD
  5
5FD
102
{ACAD_REACTORS
330
5EE
102
}
330
5EE
100
AcDbXrecord
280
     1
 70
     0
  0
XRECORD
  5
5F2
102
{ACAD_REACTORS
330
5EE
102
}
330
5EE
100
AcDbXrecord
280
     1
  1

  0
XRECORD
  5
5EF
102
{ACAD_REACTORS
330
5EE
102
}
330
5EE
100
AcDbXrecord
280
     1
 90
        1
  0
XRECORD
  5
5F0
102
{ACAD_REACTORS
330
5EE
102
}
330
5EE
100
AcDbXrecord
280
     1
 90
       70
  0
XRECORD
  5
607
102
{ACAD_REACTORS
330
5EE
102
}
330
5EE
100
AcDbXrecord
280
     1
340
0
  0
XRECORD
  5
60D
102
{ACAD_REACTORS
330
5EE
102
}
330
5EE
100
AcDbXrecord
280
     1
 10
0.0
 20
0.0
 30
0.0
  0
XRECORD
  5
609
102
{ACAD_REACTORS
330
5EE
102
}
330
5EE
100
AcDbXrecord
280
     1
 10
0.0
 20
0.0
 30
0.0
  0
XRECORD
  5
60C
102
{ACAD_REACTORS
330
5EE
102
}
330
5EE
100
AcDbXrecord
280
     1
 10
0.0
 20
0.0
 30
0.0
  0
XRECORD
  5
60A
102
{ACAD_REACTORS
330
5EE
102
}
330
5EE
100
AcDbXrecord
280
     1
 10
0.0
 20
0.0
 30
0.0
  0
XRECORD
  5
60B
102
{ACAD_REACTORS
330
5EE
102
}
330
5EE
100
AcDbXrecord
280
     1
 10
0.0
 20
0.0
 30
0.0
  0
XRECORD
  5
608
102
{ACAD_REACTORS
330
5EE
102
}
330
5EE
100
AcDbXrecord
280
     1
 10
0.0
 20
0.0
 30
0.0
  0
XRECORD
  5
605
102
{ACAD_REACTORS
330
5EE
102
}
330
5EE
100
AcDbXrecord
280
     1
340
0
  0
XRECORD
  5
606
102
{ACAD_REACTORS
330
5EE
102
}
330
5EE
100
AcDbXrecord
280
     1
 70
     0
  0
XRECORD
  5
5FA
102
{ACAD_REACTORS
330
5EE
102
}
330
5EE
100
AcDbXrecord
280
     1
  1
{6C095172-1434-4472-BA5F-21E459A33967}
  0
DICTIONARYVAR
  5
5EC
102
{ACAD_REACTORS
330
5EB
102
}
330
5EB
100
DictionaryVariables
280
     0
  1
1
  0
ENDSEC
  0
EOF
